  0
SECTION
  2
HEADER
  9
$ACADVER
  1
AC1009
  9
$INSBASE
 10
0.0
 20
0.0
 30
0.0
  9
$EXTMIN
 10
220.6034318080623962
 20
43.6839793888638965
 30
-24.4435672307898102
  9
$EXTMAX
 10
330.1062251229702156
 20
280.2518878132675013
 30
-24.4435672307897711
  9
$LIMMIN
 10
0.0
 20
0.0
  9
$LIMMAX
 10
210.0
 20
297.0
  9
$ORTHOMODE
 70
     1
  9
$REGENMODE
 70
     1
  9
$FILLMODE
 70
     1
  9
$QTEXTMODE
 70
     0
  9
$MIRRTEXT
 70
     1
  9
$DRAGMODE
 70
     2
  9
$LTSCALE
 40
10.0
  9
$OSMODE
 70
  2495
  9
$ATTMODE
 70
     1
  9
$TEXTSIZE
 40
3.5
  9
$TRACEWID
 40
0.5
  9
$TEXTSTYLE
  7
STANDARD
  9
$CLAYER
  8
STEMPEL
  9
$CELTYPE
  6
BYLAYER
  9
$CECOLOR
 62
   256
  9
$DIMSCALE
 40
1.0
  9
$DIMASZ
 40
3.5
  9
$DIMEXO
 40
1.0
  9
$DIMDLI
 40
7.0
  9
$DIMRND
 40
0.0
  9
$DIMDLE
 40
0.0
  9
$DIMEXE
 40
1.0
  9
$DIMTP
 40
0.0
  9
$DIMTM
 40
0.0
  9
$DIMTXT
 40
3.5
  9
$DIMCEN
 40
1.5
  9
$DIMTSZ
 40
0.0
  9
$DIMTOL
 70
     0
  9
$DIMLIM
 70
     0
  9
$DIMTIH
 70
     0
  9
$DIMTOH
 70
     0
  9
$DIMSE1
 70
     0
  9
$DIMSE2
 70
     0
  9
$DIMTAD
 70
     1
  9
$DIMZIN
 70
     8
  9
$DIMBLK
  1

  9
$DIMASO
 70
     1
  9
$DIMSHO
 70
     0
  9
$DIMPOST
  1

  9
$DIMAPOST
  1

  9
$DIMALT
 70
     0
  9
$DIMALTD
 70
     2
  9
$DIMALTF
 40
25.3999999999999986
  9
$DIMLFAC
 40
1.0
  9
$DIMTOFL
 70
     1
  9
$DIMTVP
 40
0.0
  9
$DIMTIX
 70
     0
  9
$DIMSOXD
 70
     0
  9
$DIMSAH
 70
     0
  9
$DIMBLK1
  1

  9
$DIMBLK2
  1

  9
$DIMSTYLE
  2
STANDARD
  9
$DIMCLRD
 70
     0
  9
$DIMCLRE
 70
     0
  9
$DIMCLRT
 70
     1
  9
$DIMTFAC
 40
0.5
  9
$DIMGAP
 40
1.5
  9
$LUNITS
 70
     2
  9
$LUPREC
 70
     2
  9
$SKETCHINC
 40
1.0
  9
$FILLETRAD
 40
36.5
  9
$AUNITS
 70
     0
  9
$AUPREC
 70
     0
  9
$MENU
  1
ACAD
  9
$ELEVATION
 40
0.0
  9
$PELEVATION
 40
0.0
  9
$THICKNESS
 40
0.0
  9
$LIMCHECK
 70
     0
  9
$BLIPMODE
 70
     0
  9
$CHAMFERA
 40
0.0
  9
$CHAMFERB
 40
0.0
  9
$SKPOLY
 70
     0
  9
$TDCREATE
 40
2455397.8646990740671754
  9
$TDUPDATE
 40
2458967.602673611138016
  9
$TDINDWG
 40
0.1091823148
  9
$TDUSRTIMER
 40
0.1091823148
  9
$USRTIMER
 70
     1
  9
$ANGBASE
 50
0.0
  9
$ANGDIR
 70
     0
  9
$PDMODE
 70
     0
  9
$PDSIZE
 40
0.0
  9
$PLINEWID
 40
0.0
  9
$COORDS
 70
     1
  9
$SPLFRAME
 70
     0
  9
$SPLINETYPE
 70
     6
  9
$SPLINESEGS
 70
     8
  9
$ATTDIA
 70
     1
  9
$ATTREQ
 70
     1
  9
$HANDLING
 70
     1
  9
$HANDSEED
  5
10EE
  9
$SURFTAB1
 70
     6
  9
$SURFTAB2
 70
     6
  9
$SURFTYPE
 70
     6
  9
$SURFU
 70
     6
  9
$SURFV
 70
     6
  9
$UCSNAME
  2

  9
$UCSORG
 10
0.0
 20
0.0
 30
0.0
  9
$UCSXDIR
 10
1.0
 20
0.0
 30
0.0
  9
$UCSYDIR
 10
0.0
 20
1.0
 30
0.0
  9
$PUCSNAME
  2

  9
$PUCSORG
 10
0.0
 20
0.0
 30
0.0
  9
$PUCSXDIR
 10
1.0
 20
0.0
 30
0.0
  9
$PUCSYDIR
 10
0.0
 20
1.0
 30
0.0
  9
$USERI1
 70
     0
  9
$USERI2
 70
     0
  9
$USERI3
 70
     0
  9
$USERI4
 70
     0
  9
$USERI5
 70
     0
  9
$USERR1
 40
0.0
  9
$USERR2
 40
0.0
  9
$USERR3
 40
0.0
  9
$USERR4
 40
0.0
  9
$USERR5
 40
0.0
  9
$WORLDVIEW
 70
     1
  9
$SHADEDGE
 70
     3
  9
$SHADEDIF
 70
    70
  9
$TILEMODE
 70
     1
  9
$MAXACTVP
 70
    16
  9
$PLIMCHECK
 70
     0
  9
$PEXTMIN
 10
1.0000000000000000E+20
 20
1.0000000000000000E+20
 30
1.0000000000000000E+20
  9
$PEXTMAX
 10
-1.0000000000000000E+20
 20
-1.0000000000000000E+20
 30
-1.0000000000000000E+20
  9
$PLIMMIN
 10
1.1640277947802311
 20
0.7307923584569985
  9
$PLIMMAX
 10
211.1640277947801962
 20
297.7307923584569949
  9
$UNITMODE
 70
     0
  9
$VISRETAIN
 70
     0
  9
$PLINEGEN
 70
     0
  9
$PSLTSCALE
 70
     0
  0
ENDSEC
  0
SECTION
  2
TABLES
  0
TABLE
  2
VPORT
 70
     1
  0
VPORT
  2
*ACTIVE
 70
     0
 10
0.0
 20
0.0
 11
1.0
 21
1.0
 12
-0.6973153978375138
 22
-52.5325267897675587
 13
0.0
 23
0.0
 14
1.0
 24
1.0
 15
10.0
 25
10.0
 16
-0.0000000000001137
 26
0.0
 36
432.0688864291669802
 17
276.0521438633538196
 27
214.5004603908332967
 37
-12.2217836153948802
 40
238.2596932283921092
 41
1.7852028639618129
 42
50.0
 43
0.0
 44
0.0
 50
0.0
 51
0.0
 71
     0
 72
  1500
 73
     1
 74
     0
 75
     0
 76
     0
 77
     0
 78
     0
  0
ENDTAB
  0
TABLE
  2
LTYPE
 70
     6
  0
LTYPE
  2
CONTINUOUS
 70
     0
  3
Solid line
 72
    65
 73
     0
 40
0.0
  0
LTYPE
  2
PHANTOM2
 70
     0
  3
Phantom (.5x) ___ _ _ ___ _ _ ___ _ _ ___ _ _
 72
    65
 73
     6
 40
1.25
 49
0.625
 49
-0.125
 49
0.125
 49
-0.125
 49
0.125
 49
-0.125
  0
LTYPE
  2
VERDECKT
 70
     0
  3
Verdeckt __ __ __ __ __ __ __ __ __ __ __ __ __
 72
    65
 73
     2
 40
0.375
 49
0.25
 49
-0.125
  0
ENDTAB
  0
TABLE
  2
LAYER
 70
    11
  0
LAYER
  2
0
 70
     0
 62
     7
  6
CONTINUOUS
  0
LAYER
  2
VOLL
 70
     0
 62
     1
  6
CONTINUOUS
  0
LAYER
  2
STEMPEL
 70
     0
 62
     3
  6
CONTINUOUS
  0
LAYER
  2
DEFPOINTS
 70
     0
 62
     7
  6
CONTINUOUS
  0
LAYER
  2
ADSK_ASSOC_ENTITY_BACKUPS
 70
     1
 62
    -7
  6
CONTINUOUS
  0
ENDTAB
  0
TABLE
  2
STYLE
 70
     4
  0
STYLE
  2
STANDARD
 70
     0
 40
0.0
 41
0.8
 50
0.0
 71
     0
 42
3.5
  3
simplex.shx
  4

  0
STYLE
  2
GREEKS
 70
     0
 40
0.0
 41
0.8
 50
0.0
 71
     0
 42
2.5
  3
SIMPLEX.shx
  4

  0
ENDTAB
  0
TABLE
  2
VIEW
 70
     1
  0
ENDTAB
  0
TABLE
  2
UCS
 70
     0
  0
ENDTAB
  0
TABLE
  2
APPID
 70
    15
  0
APPID
  2
ACAD
 70
     0
  0
APPID
  2
ACAD_NAV_VCDISPLAY
 70
     0
  0
APPID
  2
ACAD_MLEADERVER
 70
     0
  0
APPID
  2
ACAD_EXEMPT_FROM_CAD_STANDARDS
 70
     0
  0
APPID
  2
ACAD_PSEXT
 70
     0
  0
APPID
  2
ACAECLAYERSTANDARD
 70
     0
  0
APPID
  2
ACAUTHENVIRON
 70
     0
  0
APPID
  2
ACCMTRANSPARENCY
 70
     0
  0
APPID
  2
ACSYNERGY
 70
     0
  0
APPID
  2
SYNERGY_BODY_TBR_ID
 70
     0
  0
APPID
  2
ACAD_VIEW_EDGE_ID
 70
     0
  0
APPID
  2
ACAD_STEPID
 70
     0
  0
APPID
  2
ACADANNOMONITORALERTICONDI
 70
     0
  0
APPID
  2
ACAD_DSTYLE_DIMRADIAL_EXTENSION
 70
     0
  0
APPID
  2
AcDbAttr
 70
     0
  0
ENDTAB
  0
TABLE
  2
DIMSTYLE
 70
     2
  0
DIMSTYLE
  2
STANDARD
 70
     0
  3

  4

  5

  6

  7

 40
1.0
 41
0.18
 42
0.0625
 43
0.38
 44
0.18
 45
0.0
 46
0.0
 47
0.0
 48
0.0
140
0.18
141
0.09
142
0.0
143
25.3999999999999986
144
1.0
145
0.0
146
1.0
147
0.09
 71
     0
 72
     0
 73
     1
 74
     1
 75
     0
 76
     0
 77
     0
 78
     0
170
     0
171
     2
172
     0
173
     0
174
     0
175
     0
176
     0
177
     0
178
     0
  0
ENDTAB
  0
ENDSEC
  0
SECTION
  2
BLOCKS
  0
BLOCK
  8
0
  2
$MODEL_SPACE
 70
     0
 10
0.0
 20
0.0
 30
0.0
  3
$MODEL_SPACE
  1

  0
ENDBLK
  5
36
  8
0
  0
BLOCK
 67
     1
  8
0
  2
$PAPER_SPACE
 70
     0
 10
0.0
 20
0.0
 30
0.0
  3
$PAPER_SPACE
  1

  0
ENDBLK
  5
34
 67
     1
  8
0
  0
BLOCK
  8
0
  2
*S4
 70
     1
 10
0.0
 20
0.0
 30
0.0
  3
*S4
  1

  0
ENDBLK
  5
A14
  8
0
  0
BLOCK
  8
0
  2
A$C03EC3C09
 70
     0
 10
0.0
 20
0.0
 30
0.0
  3
A$C03EC3C09
  1

  0
LINE
  5
1032
  8
0
  6
CONTINUOUS
 10
131.0506380317945911
 20
135.0752253504689975
 30
0.0000000000000284
 11
131.0506380317945911
 21
188.0752253504689975
 31
0.0000000000000284
  0
LINE
  5
1033
  8
0
  6
CONTINUOUS
 10
177.5534313467017
 20
131.968872200532104
 30
0.0000000000000355
 11
177.5534313467017
 21
191.1815785004058057
 31
0.0000000000000355
  0
LINE
  5
1034
  8
0
  6
CONTINUOUS
 10
131.0506380317945911
 20
188.0752253504689122
 30
0.0000000000000284
 11
134.4261045070450109
 21
188.0752253504689122
 31
0.0000000000000292
  0
LINE
  5
1035
  8
0
  6
CONTINUOUS
 10
131.0506380317945911
 20
135.0752253504689975
 30
0.0000000000000284
 11
134.4261045070450109
 21
135.0752253504689975
 31
0.0000000000000292
  0
ARC
  5
1036
  8
0
  6
CONTINUOUS
 10
134.4261045070452099
 20
127.0752253504704044
 30
0.0000000000000284
 40
7.9999999999986073
 50
58.2116693829452885
 51
90.0000000000014211
  0
ARC
  5
1037
  8
0
  6
CONTINUOUS
 10
134.4261045070452099
 20
196.0752253504674911
 30
0.0000000000000284
 40
7.9999999999986056
 50
269.9999999999985789
 51
301.7883306170547257
  0
ARC
  5
1038
  8
0
  6
CONTINUOUS
 10
144.9617582598966976
 20
144.0752253504666101
 30
0.0000000000000284
 40
11.9999999999976108
 50
238.2116693829412952
 51
270.0
  0
ARC
  5
1039
  8
0
  6
CONTINUOUS
 10
144.9617582598966976
 20
179.0752253504712996
 30
0.0000000000000284
 40
11.9999999999976108
 50
89.9999999999954952
 51
121.7883306170541999
  0
LINE
  5
103A
  8
0
  6
CONTINUOUS
 10
144.9617582598976924
 20
191.0752253504689122
 30
0.0000000000000284
 11
153.0534313467017
 21
191.0752253504689122
 31
0.0000000000000302
  0
LINE
  5
103B
  8
0
  6
CONTINUOUS
 10
144.9617582598976924
 20
132.0752253504689975
 30
0.0000000000000284
 11
153.0534313467017
 21
132.0752253504689975
 31
0.0000000000000302
  0
ARC
  5
103C
  8
0
  6
CONTINUOUS
 10
153.0534313467017
 20
122.0752253504712996
 30
0.0000000000000355
 40
9.9999999999976552
 50
70.5369005553060049
 51
89.9999999999996732
  0
ARC
  5
103D
  8
0
  6
CONTINUOUS
 10
153.0534313467017
 20
201.0752253504666101
 30
0.0000000000000355
 40
9.9999999999976392
 50
270.0000000000002842
 51
289.4630994446940235
  0
ARC
  5
103E
  8
0
  6
CONTINUOUS
 10
164.7154313466988924
 20
155.0752253504529108
 30
0.0000000000000355
 40
25.0000320571122217
 50
250.5369005553052091
 51
270.0917549919831799
  0
ARC
  5
103F
  8
0
  6
CONTINUOUS
 10
164.7154313466988924
 20
168.0752253504849989
 30
0.0000000000000355
 40
25.0000320571122217
 50
89.9082450080167632
 51
109.4630994446948051
  0
LINE
  5
1040
  8
0
  6
CONTINUOUS
 10
164.7554670488048032
 20
193.0752253504689975
 30
0.0000000000000355
 11
169.1709300040409119
 21
193.0752253504689975
 31
0.0000000000000365
  0
LINE
  5
1041
  8
0
  6
CONTINUOUS
 10
164.7554670488048032
 20
130.0752253504689122
 30
0.0000000000000355
 11
169.1709300040409119
 21
130.0752253504689122
 31
0.0000000000000365
  0
ARC
  5
1042
  8
0
  6
CONTINUOUS
 10
169.170930004041594
 20
149.5752253504653027
 30
0.0000000000000355
 40
19.4999999999964118
 50
269.9999999999978968
 51
295.4594285688220907
  0
ARC
  5
1043
  8
0
  6
CONTINUOUS
 10
169.1709300040415087
 20
173.5752253504724081
 30
0.0000000000000355
 40
19.4999999999966711
 50
64.5405714311782788
 51
90.0000000000019753
  0
ARC
  5
1044
  8
0
  6
CONTINUOUS
 10
94.5506380317947333
 20
161.5752253504689122
 30
0.0000000000000213
 40
26.5
 50
90.0
 51
270.0
  0
LINE
  5
1045
  8
0
  6
CONTINUOUS
 10
131.0506380317945911
 20
135.0752253504689122
 30
0.0000000000000284
 11
131.0506380317945911
 21
188.0752253504689122
 31
0.0000000000000284
  0
LINE
  5
1046
  8
0
  6
CONTINUOUS
 10
131.0506380317945911
 20
188.0752253504689122
 30
0.0000000000000284
 11
94.5506380317947333
 21
188.0752253504689122
 31
0.0000000000000213
  0
LINE
  5
1047
  8
0
  6
CONTINUOUS
 10
94.5506380317947333
 20
135.0752253504689122
 30
0.0000000000000213
 11
131.0506380317945911
 21
135.0752253504689122
 31
0.0000000000000284
  0
LINE
  5
1048
  8
0
  6
VERDECKT
 62
     1
 10
131.0506380317945911
 20
186.5752253504689122
 30
0.0000000000000284
 11
134.4261045070450109
 21
186.5752253504689122
 31
0.0000000000000292
  0
LINE
  5
1049
  8
0
  6
VERDECKT
 62
     1
 10
131.0506380317945911
 20
136.5752253504689975
 30
0.0000000000000284
 11
134.4261045070450109
 21
136.5752253504689975
 31
0.0000000000000292
  0
ARC
  5
104A
  8
0
  6
VERDECKT
 62
     1
 10
134.4261045070450109
 20
127.0752253504700064
 30
0.0000000000000284
 40
9.4999999999990337
 50
58.2116693829443932
 51
90.0000000000003268
  0
ARC
  5
104B
  8
0
  6
VERDECKT
 62
     1
 10
134.4261045070450109
 20
196.075225350467889
 30
0.0000000000000284
 40
9.4999999999990266
 50
269.9999999999997158
 51
301.7883306170555784
  0
ARC
  5
104C
  8
0
  6
VERDECKT
 62
     1
 10
144.9617582598966123
 20
144.0752253504649047
 30
0.0000000000000284
 40
10.4999999999960494
 50
238.2116693829370888
 51
270.0
  0
ARC
  5
104D
  8
0
  6
VERDECKT
 62
     1
 10
144.9617582598966123
 20
179.0752253504730049
 30
0.0000000000000284
 40
10.4999999999960405
 50
89.9999999999941025
 51
121.7883306170569995
  0
LINE
  5
104E
  8
0
  6
VERDECKT
 62
     1
 10
144.9617582598976924
 20
189.5752253504689975
 30
0.0000000000000284
 11
153.0534313467017
 21
189.5752253504689975
 31
0.0000000000000302
  0
LINE
  5
104F
  8
0
  6
VERDECKT
 62
     1
 10
144.9617582598976924
 20
133.5752253504689122
 30
0.0000000000000284
 11
153.0534313467017
 21
133.5752253504689122
 31
0.0000000000000302
  0
ARC
  5
1050
  8
0
  6
VERDECKT
 62
     1
 10
153.0534313467018137
 20
122.0752253504710012
 30
0.0000000000000355
 40
11.4999999999979892
 50
70.5369005553076107
 51
90.0000000000003979
  0
ARC
  5
1051
  8
0
  6
VERDECKT
 62
     1
 10
153.0534313467018137
 20
201.0752253504668943
 30
0.0000000000000355
 40
11.4999999999980105
 50
269.9999999999996021
 51
289.4630994446923751
  0
ARC
  5
1052
  8
0
  6
VERDECKT
 62
     1
 10
164.7154313466998019
 20
155.0752253504570888
 30
0.0000000000000355
 40
23.5000320571164814
 50
250.5369005553062891
 51
270.0917549917618885
  0
ARC
  5
1053
  8
0
  6
VERDECKT
 62
     1
 10
164.7154313466998019
 20
168.0752253504807072
 30
0.0000000000000355
 40
23.5000320571164814
 50
89.9082450082381541
 51
109.4630994446936967
  0
LINE
  5
1054
  8
0
  6
VERDECKT
 62
     1
 10
164.7530649096688933
 20
191.5752263121808028
 30
0.0000000000000355
 11
169.1709378407726945
 21
191.5752263121808028
 31
0.0000000000000365
  0
LINE
  5
1055
  8
0
  6
VERDECKT
 62
     1
 10
164.7530649096688933
 20
131.5752243887571069
 30
0.0000000000000355
 11
169.1709378407726945
 21
131.5752243887571069
 31
0.0000000000000365
  0
ARC
  5
1056
  8
0
  6
VERDECKT
 62
     1
 10
169.1709300040409971
 20
149.5752253504685996
 30
0.0000000000000355
 40
17.9999999999997193
 50
270.0000249450918091
 51
297.7551793916147176
  0
ARC
  5
1057
  8
0
  6
VERDECKT
 62
     1
 10
169.1709300040407129
 20
173.5752253504684006
 30
0.0000000000000355
 40
18.0000000000006501
 50
62.2448206083861066
 51
89.9999750549075515
  0
CIRCLE
  5
1058
  8
0
  6
VERDECKT
 62
     1
 10
94.5506380317947901
 20
161.5752253504689122
 30
0.0000000000000213
 40
25.0
  0
CIRCLE
  5
1059
  8
0
  6
VERDECKT
 62
     1
 10
94.5506380317945343
 20
161.5752253504689122
 30
0.0000000000000213
 40
24.5568269260551695
  0
ARC
  5
105A
  8
0
  6
VERDECKT
 62
     1
 10
94.5506380317947333
 20
161.5752253504689122
 30
0.0000000000000213
 40
26.5
 50
270.0
 51
90.0
  0
CIRCLE
  5
105B
  8
0
  6
VERDECKT
 62
     1
 10
94.5506380317946054
 20
161.5752253504689122
 30
0.0000000000000213
 40
26.0625566823703103
  0
LINE
  5
105C
  8
0
  6
VERDECKT
 62
     1
 10
131.0506380317945911
 20
186.5752253504689122
 30
0.0000000000000284
 11
94.5506380317947901
 21
186.5752253504689122
 31
0.0000000000000213
  0
LINE
  5
105D
  8
0
  6
VERDECKT
 62
     1
 10
94.5506380317947901
 20
136.5752253504689122
 30
0.0000000000000213
 11
131.0506380317945911
 21
136.5752253504689122
 31
0.0000000000000284
  0
ENDBLK
  5
105F
  8
0
  0
BLOCK
  8
0
  2
A$C7D2A1120
 70
     0
 10
0.0
 20
0.0
 30
0.0
  3
A$C7D2A1120
  1

  0
LINE
  5
1063
  8
0
  6
CONTINUOUS
 10
131.0506380317945911
 20
20.754332682200431
 30
-0.0000000000000046
 11
131.0506380317945911
 21
47.2543326822004204
 31
-0.0000000000000105
210
0.0
220
1.0
230
-0.0000000000000002
  0
LINE
  5
1064
  8
0
  6
CONTINUOUS
 10
131.0506380317945911
 20
47.2543326822004204
 30
-0.0000000000000105
 11
131.0506380317945059
 21
73.7543326822004133
 31
-0.0000000000000164
210
0.0
220
1.0
230
-0.0000000000000002
  0
LINE
  5
1065
  8
0
  6
CONTINUOUS
 10
177.5534313467018137
 20
17.6479795322635802
 30
-0.0000000000000039
 11
177.5534313467015863
 21
76.8606858321373778
 31
-0.0000000000000171
210
0.0
220
1.0
230
-0.0000000000000002
  0
LINE
  5
1066
  8
0
  6
CONTINUOUS
 10
131.0506380317945059
 20
73.7543326822003991
 30
-0.0000000000000164
 11
134.4261045070448972
 21
73.7543326822003991
 31
-0.0000000000000164
210
0.0
220
1.0
230
-0.0000000000000002
  0
LINE
  5
1067
  8
0
  6
CONTINUOUS
 10
131.0506380317947048
 20
20.7543326822004417
 30
-0.0000000000000046
 11
134.4261045070450109
 21
20.7543326822004488
 31
-0.0000000000000046
210
0.0
220
1.0
230
-0.0000000000000002
  0
ARC
  5
1068
  8
0
  6
CONTINUOUS
 10
-134.4261045070452951
 20
12.7543326822020493
 30
0.0
 40
7.9999999999984146
210
0.0
220
-0.0000000000000002
230
-1.0
 50
89.9999999999983658
 51
121.7883306170551947
  0
ARC
  5
1069
  8
0
  6
CONTINUOUS
 10
-134.4261045070450962
 20
81.7543326821988074
 30
0.0
 40
7.999999999998435
210
0.0
220
-0.0000000000000002
230
-1.0
 50
238.2116693829447911
 51
270.0000000000017053
  0
ARC
  5
106A
  8
0
  6
CONTINUOUS
 10
-144.9617582598966976
 20
29.7543326821979797
 30
0.0
 40
11.9999999999974598
210
0.0
220
-0.0000000000000002
230
-1.0
 50
270.0
 51
301.7883306170591027
  0
ARC
  5
106B
  8
0
  6
CONTINUOUS
 10
-144.9617582598966123
 20
64.7543326822031133
 30
0.0
 40
11.9999999999972804
210
0.0
220
-0.0000000000000002
230
-1.0
 50
58.2116693829451393
 51
90.0000000000047606
  0
LINE
  5
106C
  8
0
  6
CONTINUOUS
 10
144.9617582598976071
 20
76.7543326822004275
 30
-0.000000000000017
 11
153.0534313467017
 21
76.7543326822004275
 31
-0.000000000000017
210
0.0
220
1.0
230
-0.0000000000000002
  0
LINE
  5
106D
  8
0
  6
CONTINUOUS
 10
144.9617582598976924
 20
17.7543326822004595
 30
-0.0000000000000039
 11
153.0534313467018137
 21
17.7543326822004808
 31
-0.0000000000000039
210
0.0
220
1.0
230
-0.0000000000000002
  0
ARC
  5
106E
  8
0
  6
CONTINUOUS
 10
-153.0534313467017
 20
7.75433268220283
 30
0.0
 40
9.9999999999976321
210
0.0
220
-0.0000000000000002
230
-1.0
 50
90.0000000000003268
 51
109.4630994446939951
  0
ARC
  5
106F
  8
0
  6
CONTINUOUS
 10
-153.0534313467015863
 20
86.7543326821980543
 30
0.0
 40
9.9999999999976286
210
0.0
220
-0.0000000000000002
230
-1.0
 50
250.5369005553060049
 51
269.9999999999997158
  0
ARC
  5
1070
  8
0
  6
CONTINUOUS
 10
-164.7154313466990061
 20
40.7543326821850727
 30
0.0
 40
25.0000320571128682
210
0.0
220
-0.0000000000000002
230
-1.0
 50
269.9082450080168201
 51
289.4630994446944214
  0
ARC
  5
1071
  8
0
  6
CONTINUOUS
 10
-164.7154313466990061
 20
53.7543326822160807
 30
0.0
 40
25.0000320571126906
210
0.0
220
-0.0000000000000002
230
-1.0
 50
70.5369005553051949
 51
90.0917549919828957
  0
LINE
  5
1072
  8
0
  6
CONTINUOUS
 10
164.7554670488048032
 20
78.7543326822005127
 30
-0.0000000000000175
 11
169.1709300040407982
 21
78.7543326822005127
 31
-0.0000000000000175
210
0.0
220
1.0
230
-0.0000000000000002
  0
LINE
  5
1073
  8
0
  6
CONTINUOUS
 10
164.7554670488048885
 20
15.7543326822004399
 30
-0.0000000000000035
 11
169.1709300040409119
 21
15.7543326822004506
 31
-0.0000000000000035
210
0.0
220
1.0
230
-0.0000000000000002
  0
ARC
  5
1074
  8
0
  6
CONTINUOUS
 10
-169.1709300040415087
 20
35.2543326821972087
 30
0.0
 40
19.4999999999968203
210
0.0
220
-0.0000000000000002
230
-1.0
 50
244.5405714311781082
 51
270.0000000000017053
  0
ARC
  5
1075
  8
0
  6
CONTINUOUS
 10
-169.170930004041594
 20
59.2543326822041223
 30
0.0
 40
19.4999999999964508
210
0.0
220
-0.0000000000000002
230
-1.0
 50
89.9999999999977547
 51
115.4594285688218065
  0
LINE
  5
1076
  8
0
  6
CONTINUOUS
 10
68.4880813494243057
 20
-52.7484606327063972
 30
0.0000000000000117
 11
120.613194714164905
 21
-52.7484606327065677
 31
0.0000000000000117
210
0.0
220
1.0
230
-0.0000000000000002
  0
LINE
  5
1077
  8
0
  6
CONTINUOUS
 10
131.0506380317945911
 20
20.754332682200431
 30
-0.0000000000000046
 11
131.0506380317945911
 21
47.2543326822004204
 31
-0.0000000000000105
210
0.0
220
1.0
230
-0.0000000000000002
  0
LINE
  5
1078
  8
0
  6
CONTINUOUS
 10
131.0506380317945911
 20
47.2543326822004204
 30
-0.0000000000000105
 11
131.0506380317945059
 21
73.7543326822004133
 31
-0.0000000000000164
210
0.0
220
1.0
230
-0.0000000000000002
  0
ARC
  5
1079
  8
0
  6
CONTINUOUS
 10
-74.5506380317867468
 20
-47.4646645038005417
 30
0.0
 40
6.4999999999921263
210
0.0
220
-0.0000000000000002
230
-1.0
 50
354.9999999999965894
 51
0.0000000000029516
  0
ARC
  5
107A
  8
0
  6
CONTINUOUS
 10
-114.5506380317875994
 20
-47.4646645038000514
 30
0.0
 40
6.5000000000069633
210
0.0
220
-0.0000000000000002
230
-1.0
 50
180.0000000000025011
 51
184.9999999999976126
  0
LINE
  5
107B
  8
0
  6
CONTINUOUS
 10
121.0506380317947048
 20
10.7543326822005092
 30
-0.0000000000000024
 11
121.0506380317946054
 21
-47.4646645038003427
 31
0.0000000000000105
210
0.0
220
1.0
230
-0.0000000000000002
  0
LINE
  5
107C
  8
0
  6
CONTINUOUS
 10
68.0506380317947475
 20
10.7543326822006602
 30
-0.0000000000000024
 11
68.0506380317946054
 21
-47.464664503800222
 31
0.0000000000000105
210
0.0
220
1.0
230
-0.0000000000000002
  0
LINE
  5
107D
  8
0
  6
CONTINUOUS
 10
68.4880813494243341
 20
-52.7484606327064327
 30
0.0000000000000117
 11
68.0753724941982767
 21
-48.0311768316600407
 31
0.0000000000000107
210
0.0
220
1.0
230
-0.0000000000000002
  0
LINE
  5
107E
  8
0
  6
CONTINUOUS
 10
120.613194714164905
 20
-52.7484606327065606
 30
0.0000000000000117
 11
121.0259035693909055
 21
-48.0311768316601828
 31
0.0000000000000107
210
0.0
220
1.0
230
-0.0000000000000002
  0
ARC
  5
107F
  8
0
  6
CONTINUOUS
 10
-131.0506380317947048
 20
10.7543326822005092
 30
0.0
 40
63.0
210
0.0
220
-0.0000000000000002
230
-1.0
 50
0.0000000000001145
 51
89.9999999999998437
  0
ARC
  5
1080
  8
0
  6
CONTINUOUS
 10
131.0506380317947048
 20
10.7543326822005003
 30
-0.0000000000000024
 40
9.9999999999999982
 50
90.0000000000004832
 51
179.9999999999998863
  0
LINE
  5
1081
  8
0
  6
VERDECKT
 62
     1
 10
131.0506380317945911
 20
72.2543326822003706
 30
-0.000000000000016
 11
134.4261045070448972
 21
72.2543326822003706
 31
-0.000000000000016
210
0.0
220
1.0
230
-0.0000000000000002
  0
LINE
  5
1082
  8
0
  6
VERDECKT
 62
     1
 10
131.0506380317945911
 20
22.2543326822004701
 30
-0.0000000000000049
 11
134.4261045070450109
 21
22.2543326822004808
 31
-0.0000000000000049
210
0.0
220
1.0
230
-0.0000000000000002
  0
ARC
  5
1083
  8
0
  6
VERDECKT
 62
     1
 10
-134.4261045070450962
 20
12.7543326822014809
 30
0.0
 40
9.4999999999989875
210
0.0
220
-0.0000000000000002
230
-1.0
 50
89.9999999999994742
 51
121.7883306170554931
  0
ARC
  5
1084
  8
0
  6
VERDECKT
 62
     1
 10
-134.4261045070450109
 20
81.7543326821991769
 30
0.0
 40
9.4999999999987903
210
0.0
220
-0.0000000000000002
230
-1.0
 50
238.21166938294391
 51
270.0000000000005116
  0
ARC
  5
1085
  8
0
  6
VERDECKT
 62
     1
 10
-144.9617582598968113
 20
29.7543326821968215
 30
0.0
 40
10.4999999999964508
210
0.0
220
-0.0000000000000002
230
-1.0
 50
270.0
 51
301.7883306170616038
  0
ARC
  5
1086
  8
0
  6
VERDECKT
 62
     1
 10
-144.9617582598966123
 20
64.7543326822044492
 30
0.0
 40
10.4999999999960902
210
0.0
220
-0.0000000000000002
230
-1.0
 50
58.2116693829427803
 51
90.0000000000055849
  0
LINE
  5
1087
  8
0
  6
VERDECKT
 62
     1
 10
144.9617582598976071
 20
75.2543326822004843
 30
-0.0000000000000167
 11
153.0534313467017
 21
75.2543326822004843
 31
-0.0000000000000167
210
0.0
220
1.0
230
-0.0000000000000002
  0
LINE
  5
1088
  8
0
  6
VERDECKT
 62
     1
 10
144.9617582598976924
 20
19.2543326822004097
 30
-0.0000000000000043
 11
153.0534313467018137
 21
19.2543326822004204
 31
-0.0000000000000043
210
0.0
220
1.0
230
-0.0000000000000002
  0
ARC
  5
1089
  8
0
  6
VERDECKT
 62
     1
 10
-153.053431346701899
 20
7.7543326822024614
 30
0.0
 40
11.4999999999979998
210
0.0
220
-0.0000000000000002
230
-1.0
 50
89.9999999999994458
 51
109.4630994446922045
  0
ARC
  5
108A
  8
0
  6
VERDECKT
 62
     1
 10
-153.0534313467018137
 20
86.7543326821983527
 30
0.0
 40
11.4999999999979199
210
0.0
220
-0.0000000000000002
230
-1.0
 50
250.5369005553077102
 51
270.0000000000006821
  0
ARC
  5
108B
  8
0
  6
VERDECKT
 62
     1
 10
-164.7154313467000009
 20
40.7543326821898475
 30
0.0
 40
23.5000320571176609
210
0.0
220
-0.0000000000000002
230
-1.0
 50
269.9082450082383957
 51
289.463099444693114
  0
ARC
  5
108C
  8
0
  6
VERDECKT
 62
     1
 10
-164.7154313467000861
 20
53.7543326822108085
 30
0.0
 40
23.5000320571179415
210
0.0
220
-0.0000000000000002
230
-1.0
 50
70.5369005553067581
 51
90.0917549917611353
  0
LINE
  5
108D
  8
0
  6
VERDECKT
 62
     1
 10
164.753064909668808
 20
77.2543336439123465
 30
-0.0000000000000172
 11
169.1709378407726092
 21
77.2543336439123465
 31
-0.0000000000000172
210
0.0
220
1.0
230
-0.0000000000000002
  0
LINE
  5
108E
  8
0
  6
VERDECKT
 62
     1
 10
164.7530649096688933
 20
17.2543317204886115
 30
-0.0000000000000038
 11
169.1709378407726945
 21
17.2543317204886115
 31
-0.0000000000000038
210
0.0
220
1.0
230
-0.0000000000000002
  0
ARC
  5
108F
  8
0
  6
VERDECKT
 62
     1
 10
-169.1709300040409119
 20
35.2543326822006335
 30
0.0
 40
18.0000000000002416
210
0.0
220
-0.0000000000000002
230
-1.0
 50
242.2448206083857087
 51
269.999975054907793
  0
ARC
  5
1090
  8
0
  6
VERDECKT
 62
     1
 10
-169.1709300040409119
 20
59.2543326822004275
 30
0.0
 40
18.0000000000001386
210
0.0
220
-0.0000000000000002
230
-1.0
 50
90.0000249450919085
 51
117.7551793916141065
  0
ARC
  5
1091
  8
0
  6
VERDECKT
 62
     1
 10
-74.5506380317898447
 20
-47.4646645038027799
 30
0.0
 40
4.9999999999951106
210
0.0
220
-0.0000000000000002
230
-1.0
 50
354.9999999999968736
 51
0.0000000000032569
  0
ARC
  5
1092
  8
0
  6
VERDECKT
 62
     1
 10
-114.5506380317910953
 20
-47.464664503802382
 30
0.0
 40
5.0000000000032401
210
0.0
220
-0.0000000000000002
230
-1.0
 50
180.0000000000023022
 51
185.0000000000007958
  0
LINE
  5
1093
  8
0
  6
VERDECKT
 62
     1
 10
119.5506380317945059
 20
10.7543326822004293
 30
-0.0000000000000024
 11
119.5506380317944064
 21
-47.4646645038025881
 31
0.0000000000000105
210
0.0
220
1.0
230
-0.0000000000000002
  0
LINE
  5
1094
  8
0
  6
VERDECKT
 62
     1
 10
69.5506380317948469
 20
10.7543326822005696
 30
-0.0000000000000024
 11
69.5506380317947333
 21
-47.4646645038025028
 31
0.0000000000000105
210
0.0
220
1.0
230
-0.0000000000000002
  0
LINE
  5
1095
  8
0
  6
VERDECKT
 62
     1
 10
69.9938111057393826
 20
-52.7484606327064327
 30
0.0000000000000117
 11
69.5696645413360244
 21
-47.9004432175409107
 31
0.0000000000000106
210
0.0
220
1.0
230
-0.0000000000000002
  0
LINE
  5
1096
  8
0
  6
VERDECKT
 62
     1
 10
119.1074649578497002
 20
-52.7484606327065393
 30
0.0000000000000117
 11
119.531611522253101
 21
-47.9004432175410315
 31
0.0000000000000106
210
0.0
220
1.0
230
-0.0000000000000002
  0
ARC
  5
1097
  8
0
  6
VERDECKT
 62
     1
 10
-131.0506380317947901
 20
10.7543326822003795
 30
0.0
 40
61.5
210
0.0
220
-0.0000000000000002
230
-1.0
 50
0.0
 51
89.9999999999996447
  0
ARC
  5
1098
  8
0
  6
VERDECKT
 62
     1
 10
131.0506380317947901
 20
10.7543326822003902
 30
-0.0000000000000024
 40
11.4999999999999893
 50
90.0000000000007248
 51
179.999999999999801
  0
ENDBLK
  5
109A
  8
0
  0
ENDSEC
  0
SECTION
  2
ENTITIES
  0
TEXT
  5
8F
  8
VOLL
 10
78.076754716981128
 20
31.025947764705851
 30
0.0
 40
1.8
  1

  7
GREEKS
  0
INSERT
  5
A16
  8
ADSK_ASSOC_ENTITY_BACKUPS
  2
*S4
 10
0.0
 20
0.0
 30
0.0
  0
INSERT
  5
1060
  8
STEMPEL
  2
A$C03EC3C09
 10
152.552793776267805
 20
-86.3912139044767855
 30
-24.4435672307898315
  0
INSERT
  5
109B
  8
STEMPEL
  2
A$C7D2A1120
 10
152.552793776267805
 20
201.4975230739387086
 30
-24.4435672307897818
  0
VIEWPORT
  5
928
 67
     1
  8
0
 10
106.1640277947801962
 20
149.2307923584569096
 30
0.0
 40
533.9969448798290159
 41
299.1239570917758783
 68
     1
 69
     1
1001
ACAD
1000
MVIEW
1002
{
1070
    16
1010
0.0
1020
0.0
1030
0.0
1010
0.0
1020
0.0
1030
1.0
1040
0.0
1040
299.1239570917758783
1040
106.1640277947801962
1040
149.2307923584569096
1040
50.0
1040
0.0
1040
0.0
1070
     0
1070
  1500
1070
     1
1070
     1
1070
     0
1070
     0
1070
     0
1070
     0
1040
0.0
1040
0.0
1040
0.0
1040
10.0
1040
10.0
1040
10.0
1040
10.0
1070
     0
1002
{
1002
}
1002
}
  0
ENDSEC
  0
EOF
