  0
SECTION
  2
HEADER
  9
$ACADVER
  1
AC1009
  9
$INSBASE
 10
0.0
 20
0.0
 30
0.0
  9
$EXTMIN
 10
168.1012760635892107
 20
35.4600949849411009
 30
-23.10810193554709
  9
$EXTMAX
 10
254.0981973290024882
 20
214.3236859908404028
 30
-23.1081019355470616
  9
$LIMMIN
 10
0.0
 20
0.0
  9
$LIMMAX
 10
210.0
 20
297.0
  9
$ORTHOMODE
 70
     1
  9
$REGENMODE
 70
     1
  9
$FILLMODE
 70
     1
  9
$QTEXTMODE
 70
     0
  9
$MIRRTEXT
 70
     1
  9
$DRAGMODE
 70
     2
  9
$LTSCALE
 40
10.0
  9
$OSMODE
 70
  2495
  9
$ATTMODE
 70
     1
  9
$TEXTSIZE
 40
3.5
  9
$TRACEWID
 40
0.5
  9
$TEXTSTYLE
  7
STANDARD
  9
$CLAYER
  8
STEMPEL
  9
$CELTYPE
  6
BYLAYER
  9
$CECOLOR
 62
   256
  9
$DIMSCALE
 40
1.0
  9
$DIMASZ
 40
3.5
  9
$DIMEXO
 40
1.0
  9
$DIMDLI
 40
7.0
  9
$DIMRND
 40
0.0
  9
$DIMDLE
 40
0.0
  9
$DIMEXE
 40
1.0
  9
$DIMTP
 40
0.0
  9
$DIMTM
 40
0.0
  9
$DIMTXT
 40
3.5
  9
$DIMCEN
 40
1.5
  9
$DIMTSZ
 40
0.0
  9
$DIMTOL
 70
     0
  9
$DIMLIM
 70
     0
  9
$DIMTIH
 70
     0
  9
$DIMTOH
 70
     0
  9
$DIMSE1
 70
     0
  9
$DIMSE2
 70
     0
  9
$DIMTAD
 70
     1
  9
$DIMZIN
 70
     8
  9
$DIMBLK
  1

  9
$DIMASO
 70
     1
  9
$DIMSHO
 70
     0
  9
$DIMPOST
  1

  9
$DIMAPOST
  1

  9
$DIMALT
 70
     0
  9
$DIMALTD
 70
     2
  9
$DIMALTF
 40
25.3999999999999986
  9
$DIMLFAC
 40
1.0
  9
$DIMTOFL
 70
     1
  9
$DIMTVP
 40
0.0
  9
$DIMTIX
 70
     0
  9
$DIMSOXD
 70
     0
  9
$DIMSAH
 70
     0
  9
$DIMBLK1
  1

  9
$DIMBLK2
  1

  9
$DIMSTYLE
  2
STANDARD
  9
$DIMCLRD
 70
     0
  9
$DIMCLRE
 70
     0
  9
$DIMCLRT
 70
     1
  9
$DIMTFAC
 40
0.5
  9
$DIMGAP
 40
1.5
  9
$LUNITS
 70
     2
  9
$LUPREC
 70
     2
  9
$SKETCHINC
 40
1.0
  9
$FILLETRAD
 40
26.0
  9
$AUNITS
 70
     0
  9
$AUPREC
 70
     0
  9
$MENU
  1
ACAD
  9
$ELEVATION
 40
0.0
  9
$PELEVATION
 40
0.0
  9
$THICKNESS
 40
0.0
  9
$LIMCHECK
 70
     0
  9
$BLIPMODE
 70
     0
  9
$CHAMFERA
 40
0.0
  9
$CHAMFERB
 40
0.0
  9
$SKPOLY
 70
     0
  9
$TDCREATE
 40
2455397.8646990740671754
  9
$TDUPDATE
 40
2458967.594189815223217
  9
$TDINDWG
 40
0.0838003704
  9
$TDUSRTIMER
 40
0.0838003704
  9
$USRTIMER
 70
     1
  9
$ANGBASE
 50
0.0
  9
$ANGDIR
 70
     0
  9
$PDMODE
 70
     0
  9
$PDSIZE
 40
0.0
  9
$PLINEWID
 40
0.0
  9
$COORDS
 70
     1
  9
$SPLFRAME
 70
     0
  9
$SPLINETYPE
 70
     6
  9
$SPLINESEGS
 70
     8
  9
$ATTDIA
 70
     1
  9
$ATTREQ
 70
     1
  9
$HANDLING
 70
     1
  9
$HANDSEED
  5
F3F
  9
$SURFTAB1
 70
     6
  9
$SURFTAB2
 70
     6
  9
$SURFTYPE
 70
     6
  9
$SURFU
 70
     6
  9
$SURFV
 70
     6
  9
$UCSNAME
  2

  9
$UCSORG
 10
0.0
 20
0.0
 30
0.0
  9
$UCSXDIR
 10
1.0
 20
0.0
 30
0.0
  9
$UCSYDIR
 10
0.0
 20
1.0
 30
0.0
  9
$PUCSNAME
  2

  9
$PUCSORG
 10
0.0
 20
0.0
 30
0.0
  9
$PUCSXDIR
 10
1.0
 20
0.0
 30
0.0
  9
$PUCSYDIR
 10
0.0
 20
1.0
 30
0.0
  9
$USERI1
 70
     0
  9
$USERI2
 70
     0
  9
$USERI3
 70
     0
  9
$USERI4
 70
     0
  9
$USERI5
 70
     0
  9
$USERR1
 40
0.0
  9
$USERR2
 40
0.0
  9
$USERR3
 40
0.0
  9
$USERR4
 40
0.0
  9
$USERR5
 40
0.0
  9
$WORLDVIEW
 70
     1
  9
$SHADEDGE
 70
     3
  9
$SHADEDIF
 70
    70
  9
$TILEMODE
 70
     1
  9
$MAXACTVP
 70
    16
  9
$PLIMCHECK
 70
     0
  9
$PEXTMIN
 10
1.0000000000000000E+20
 20
1.0000000000000000E+20
 30
1.0000000000000000E+20
  9
$PEXTMAX
 10
-1.0000000000000000E+20
 20
-1.0000000000000000E+20
 30
-1.0000000000000000E+20
  9
$PLIMMIN
 10
1.1640277947802311
 20
0.7307923584569985
  9
$PLIMMAX
 10
211.1640277947801962
 20
297.7307923584569949
  9
$UNITMODE
 70
     0
  9
$VISRETAIN
 70
     0
  9
$PLINEGEN
 70
     0
  9
$PSLTSCALE
 70
     0
  0
ENDSEC
  0
SECTION
  2
TABLES
  0
TABLE
  2
VPORT
 70
     1
  0
VPORT
  2
*ACTIVE
 70
     0
 10
0.0
 20
0.0
 11
1.0
 21
1.0
 12
47.2753187118926803
 22
-59.5223195444621496
 13
0.0
 23
0.0
 14
1.0
 24
1.0
 15
10.0
 25
10.0
 16
-0.0000000000001421
 26
0.0
 36
641.6606901256130868
 17
163.8244179844031976
 27
184.4142100323529121
 37
0.0000000000000568
 40
180.1427108462274873
 41
1.7852028639618129
 42
50.0
 43
0.0
 44
0.0
 50
0.0
 51
0.0
 71
     0
 72
  1500
 73
     1
 74
     0
 75
     0
 76
     0
 77
     0
 78
     0
  0
ENDTAB
  0
TABLE
  2
LTYPE
 70
     6
  0
LTYPE
  2
CONTINUOUS
 70
     0
  3
Solid line
 72
    65
 73
     0
 40
0.0
  0
LTYPE
  2
PHANTOM2
 70
     0
  3
Phantom (.5x) ___ _ _ ___ _ _ ___ _ _ ___ _ _
 72
    65
 73
     6
 40
1.25
 49
0.625
 49
-0.125
 49
0.125
 49
-0.125
 49
0.125
 49
-0.125
  0
LTYPE
  2
VERDECKT
 70
     0
  3
Verdeckt __ __ __ __ __ __ __ __ __ __ __ __ __
 72
    65
 73
     2
 40
0.375
 49
0.25
 49
-0.125
  0
ENDTAB
  0
TABLE
  2
LAYER
 70
    11
  0
LAYER
  2
0
 70
     0
 62
     7
  6
CONTINUOUS
  0
LAYER
  2
VOLL
 70
     0
 62
     1
  6
CONTINUOUS
  0
LAYER
  2
STEMPEL
 70
     0
 62
     3
  6
CONTINUOUS
  0
LAYER
  2
DEFPOINTS
 70
     0
 62
     7
  6
CONTINUOUS
  0
LAYER
  2
ADSK_ASSOC_ENTITY_BACKUPS
 70
     1
 62
    -7
  6
CONTINUOUS
  0
ENDTAB
  0
TABLE
  2
STYLE
 70
     6
  0
STYLE
  2
STANDARD
 70
     0
 40
0.0
 41
0.8
 50
0.0
 71
     0
 42
3.5
  3
simplex.shx
  4

  0
STYLE
  2
GREEKS
 70
     0
 40
0.0
 41
0.8
 50
0.0
 71
     0
 42
2.5
  3
SIMPLEX.shx
  4

  0
ENDTAB
  0
TABLE
  2
VIEW
 70
     2
  0
ENDTAB
  0
TABLE
  2
UCS
 70
     0
  0
ENDTAB
  0
TABLE
  2
APPID
 70
    15
  0
APPID
  2
ACAD
 70
     0
  0
APPID
  2
ACAD_NAV_VCDISPLAY
 70
     0
  0
APPID
  2
ACAD_MLEADERVER
 70
     0
  0
APPID
  2
ACAD_EXEMPT_FROM_CAD_STANDARDS
 70
     0
  0
APPID
  2
ACAD_PSEXT
 70
     0
  0
APPID
  2
ACAECLAYERSTANDARD
 70
     0
  0
APPID
  2
ACAUTHENVIRON
 70
     0
  0
APPID
  2
ACCMTRANSPARENCY
 70
     0
  0
APPID
  2
ACSYNERGY
 70
     0
  0
APPID
  2
SYNERGY_BODY_TBR_ID
 70
     0
  0
APPID
  2
ACAD_VIEW_EDGE_ID
 70
     0
  0
APPID
  2
ACAD_STEPID
 70
     0
  0
APPID
  2
ACADANNOMONITORALERTICONDI
 70
     0
  0
APPID
  2
ACAD_DSTYLE_DIMRADIAL_EXTENSION
 70
     0
  0
APPID
  2
AcDbAttr
 70
     0
  0
ENDTAB
  0
TABLE
  2
DIMSTYLE
 70
     4
  0
DIMSTYLE
  2
STANDARD
 70
     0
  3

  4

  5

  6

  7

 40
1.0
 41
0.18
 42
0.0625
 43
0.38
 44
0.18
 45
0.0
 46
0.0
 47
0.0
 48
0.0
140
0.18
141
0.09
142
0.0
143
25.3999999999999986
144
1.0
145
0.0
146
1.0
147
0.09
 71
     0
 72
     0
 73
     1
 74
     1
 75
     0
 76
     0
 77
     0
 78
     0
170
     0
171
     2
172
     0
173
     0
174
     0
175
     0
176
     0
177
     0
178
     0
  0
ENDTAB
  0
ENDSEC
  0
SECTION
  2
BLOCKS
  0
BLOCK
  8
0
  2
$MODEL_SPACE
 70
     0
 10
0.0
 20
0.0
 30
0.0
  3
$MODEL_SPACE
  1

  0
ENDBLK
  5
36
  8
0
  0
BLOCK
 67
     1
  8
0
  2
$PAPER_SPACE
 70
     0
 10
0.0
 20
0.0
 30
0.0
  3
$PAPER_SPACE
  1

  0
ENDBLK
  5
34
 67
     1
  8
0
  0
BLOCK
  8
0
  2
*S4
 70
     1
 10
0.0
 20
0.0
 30
0.0
  3
*S4
  1

  0
ENDBLK
  5
A14
  8
0
  0
BLOCK
  8
0
  2
A$C8E7DC971
 70
     0
 10
0.0
 20
0.0
 30
0.0
  3
A$C8E7DC971
  1

  0
ARC
  5
E82
  8
0
  6
CONTINUOUS
 10
94.5506380317946764
 20
161.5752253504689975
 30
0.0000000000000222
 40
21.0000000000000107
 50
90.0
 51
270.0
  0
LINE
  5
E83
  8
0
  6
CONTINUOUS
 10
120.5506380317947048
 20
182.5752253504689975
 30
0.0000000000000284
 11
120.5506380317946054
 21
161.5752253504689975
 31
0.0000000000000284
  0
LINE
  5
E84
  8
0
  6
CONTINUOUS
 10
120.5506380317946054
 20
161.5752253504689975
 30
0.0000000000000284
 11
120.5506380317947048
 21
140.5752253504689975
 31
0.0000000000000284
  0
LINE
  5
E85
  8
0
  6
CONTINUOUS
 10
120.5506380317947048
 20
182.5752253504689975
 30
0.0000000000000284
 11
94.5506380317946764
 21
182.5752253504689975
 31
0.0000000000000222
  0
LINE
  5
E86
  8
0
  6
CONTINUOUS
 10
94.5506380317946764
 20
140.5752253504689975
 30
0.0000000000000222
 11
120.5506380317947048
 21
140.5752253504689975
 31
0.0000000000000284
  0
LINE
  5
E87
  8
0
  6
CONTINUOUS
 10
120.5506380317947048
 20
182.5752253504689975
 30
0.0000000000000284
 11
120.5506380317946054
 21
161.5752253504689975
 31
0.0000000000000284
  0
LINE
  5
E88
  8
0
  6
CONTINUOUS
 10
120.5506380317946054
 20
161.5752253504689975
 30
0.0000000000000284
 11
120.5506380317947048
 21
140.5752253504689975
 31
0.0000000000000284
  0
LINE
  5
E89
  8
0
  6
CONTINUOUS
 10
159.5475592972071013
 20
185.7228283507878075
 30
0.0000000000000391
 11
159.5475592972069876
 21
161.5752253504689975
 31
0.0000000000000355
  0
LINE
  5
E8A
  8
0
  6
CONTINUOUS
 10
159.5475592972069876
 20
161.5752253504689975
 30
0.0000000000000355
 11
159.5475592972071013
 21
137.4276223501501875
 31
0.0000000000000391
  0
ARC
  5
E8B
  8
0
  6
CONTINUOUS
 10
153.0058818730437054
 20
170.577658096116096
 30
0.0000000000000355
 40
16.4975672620177782
 50
66.6389589049812372
 51
90.0017465503784138
  0
ARC
  5
E8C
  8
0
  6
CONTINUOUS
 10
153.0058818730437054
 20
152.5727926048218137
 30
0.0000000000000355
 40
16.4975672620177782
 50
269.9982534496215862
 51
293.361041095018777
  0
LINE
  5
E8D
  8
0
  6
CONTINUOUS
 10
147.9145592972078873
 20
187.075070166734406
 30
0.0000000000000355
 11
153.005378976799193
 21
187.0752253504689975
 31
0.0000000000000367
  0
LINE
  5
E8E
  8
0
  6
CONTINUOUS
 10
147.9145592972078873
 20
136.0753805342035889
 30
0.0000000000000355
 11
153.005378976799193
 21
136.0752253504689122
 31
0.0000000000000367
  0
ARC
  5
E8F
  8
0
  6
CONTINUOUS
 10
147.9145592972083136
 20
167.0752253504645921
 30
0.0000000000000355
 40
19.9998448162697215
 50
90.0000000000010374
 51
108.1939705983819948
  0
ARC
  5
E90
  8
0
  6
CONTINUOUS
 10
147.9145592972083136
 20
156.0752253504732892
 30
0.0000000000000355
 40
19.9998448162696398
 50
251.8060294016179057
 51
269.99999999999892
  0
ARC
  5
E91
  8
0
  6
CONTINUOUS
 10
138.5475592972076129
 20
195.5752253504712996
 30
0.000000000000032
 40
10.0000000000021405
 50
270.0000000000014779
 51
288.1939705983813269
  0
ARC
  5
E92
  8
0
  6
CONTINUOUS
 10
138.5475592972076129
 20
127.5752253504666953
 30
0.000000000000032
 40
10.0000000000021192
 50
71.8060294016186731
 51
89.9999999999985647
  0
LINE
  5
E93
  8
0
  6
CONTINUOUS
 10
138.5475592972078118
 20
137.5752253504687985
 30
0.000000000000032
 11
134.369384677704204
 21
137.5752253504687985
 31
0.000000000000031
  0
LINE
  5
E94
  8
0
  6
CONTINUOUS
 10
138.5475592972078118
 20
185.5752253504691112
 30
0.000000000000032
 11
134.369384677704204
 21
185.5752253504691112
 31
0.000000000000031
  0
ARC
  5
E95
  8
0
  6
CONTINUOUS
 10
134.3693846777036072
 20
175.5752253504711007
 30
0.000000000000032
 40
9.9999999999980727
 50
89.9999999999965752
 51
125.6590876961406025
  0
ARC
  5
E96
  8
0
  6
CONTINUOUS
 10
134.3693846777036072
 20
147.575225350466809
 30
0.000000000000032
 40
9.9999999999980371
 50
234.340912303855788
 51
270.0
  0
ARC
  5
E97
  8
0
  6
CONTINUOUS
 10
125.0420056246152996
 20
188.5752253504695943
 30
0.0000000000000284
 40
6.0000000000004148
 50
270.0000000000017053
 51
305.6590876961400909
  0
ARC
  5
E98
  8
0
  6
CONTINUOUS
 10
125.0420056246152996
 20
134.5752253504684006
 30
0.0000000000000284
 40
6.0000000000004263
 50
54.3409123038598807
 51
89.9999999999983658
  0
LINE
  5
E99
  8
0
  6
CONTINUOUS
 10
125.0420056246154985
 20
140.5752253504689122
 30
0.0000000000000284
 11
120.5506380317947048
 21
140.5752253504689122
 31
0.0000000000000274
  0
LINE
  5
E9A
  8
0
  6
CONTINUOUS
 10
125.0420056246154985
 20
182.5752253504689975
 30
0.0000000000000284
 11
120.5506380317947048
 21
182.5752253504689975
 31
0.0000000000000274
  0
ARC
  5
E9B
  8
0
  6
VERDECKT
 62
     1
 10
94.5506380317946764
 20
161.5752253504689975
 30
0.0000000000000222
 40
21.0000000000000107
 50
270.0
 51
90.0
  0
CIRCLE
  5
E9C
  8
0
  6
VERDECKT
 62
     1
 10
94.5506380317946054
 20
161.5752253504689975
 30
0.0000000000000213
 40
20.562556682370321
  0
CIRCLE
  5
E9D
  8
0
  6
VERDECKT
 62
     1
 10
94.5506380317946764
 20
161.5752253504689975
 30
0.0000000000000222
 40
19.5
  0
CIRCLE
  5
E9E
  8
0
  6
VERDECKT
 62
     1
 10
94.5506380317945343
 20
161.5752253504689975
 30
0.0000000000000213
 40
19.0568269260552903
  0
LINE
  5
E9F
  8
0
  6
VERDECKT
 62
     1
 10
120.5506380317944064
 20
181.0752253504689975
 30
0.0000000000000284
 11
94.5506380317946764
 21
181.0752253504689975
 31
0.0000000000000222
  0
LINE
  5
EA0
  8
0
  6
VERDECKT
 62
     1
 10
94.5506380317946764
 20
142.0752253504689975
 30
0.0000000000000222
 11
120.5506380317944064
 21
142.0752253504689975
 31
0.0000000000000284
  0
ARC
  5
EA1
  8
0
  6
VERDECKT
 62
     1
 10
153.0053789767993919
 20
170.5752253504693954
 30
0.0000000000000355
 40
14.9999999999995701
 50
64.1418030082600694
 51
90.0000000000008669
  0
ARC
  5
EA2
  8
0
  6
VERDECKT
 62
     1
 10
153.0053789767993919
 20
152.5752253504684859
 30
0.0000000000000355
 40
14.9999999999995595
 50
269.9999999999990905
 51
295.8581969917398737
  0
LINE
  5
EA3
  8
0
  6
VERDECKT
 62
     1
 10
153.005378976799193
 20
137.5752253504689975
 30
0.0000000000000355
 11
147.914559297207802
 21
137.5752253504689975
 31
0.0000000000000343
  0
LINE
  5
EA4
  8
0
  6
VERDECKT
 62
     1
 10
153.005378976799193
 20
185.5752253504689975
 30
0.0000000000000355
 11
147.914559297207802
 21
185.5752253504689975
 31
0.0000000000000343
  0
ARC
  5
EA5
  8
0
  6
VERDECKT
 62
     1
 10
147.9155286267400129
 20
167.0722760719756934
 30
0.0000000000000355
 40
18.50294930388376
 50
90.0030016020832164
 51
108.1939705983849933
  0
ARC
  5
EA6
  8
0
  6
VERDECKT
 62
     1
 10
147.9155286267400129
 20
156.0781746289621879
 30
0.0000000000000355
 40
18.50294930388376
 50
251.806029401614893
 51
269.9969983979166841
  0
ARC
  5
EA7
  8
0
  6
VERDECKT
 62
     1
 10
138.5475592972076981
 20
195.5752253504701912
 30
0.000000000000032
 40
11.5000000000010498
 50
270.0000000000006253
 51
288.1939705983854765
  0
ARC
  5
EA8
  8
0
  6
VERDECKT
 62
     1
 10
138.5475592972074139
 20
127.5752253504656011
 30
0.000000000000032
 40
11.5000000000032703
 50
71.8060294016162857
 51
89.9999999999977405
  0
LINE
  5
EA9
  8
0
  6
VERDECKT
 62
     1
 10
138.5475592972078118
 20
139.0752253504689122
 30
0.000000000000032
 11
134.369384677704204
 21
139.0752253504689122
 31
0.000000000000031
  0
LINE
  5
EAA
  8
0
  6
VERDECKT
 62
     1
 10
138.5475592972078118
 20
184.0752253504691112
 30
0.000000000000032
 11
134.369384677704204
 21
184.0752253504691112
 31
0.000000000000031
  0
ARC
  5
EAB
  8
0
  6
VERDECKT
 62
     1
 10
134.3693846777040903
 20
175.5752253504693954
 30
0.000000000000032
 40
8.4999999999996572
 50
89.9999999999990195
 51
125.6590876961398067
  0
ARC
  5
EAC
  8
0
  6
VERDECKT
 62
     1
 10
134.3693846777040051
 20
147.5752253504682017
 30
0.000000000000032
 40
8.4999999999993463
 50
234.3409123038578912
 51
270.0
  0
ARC
  5
EAD
  8
0
  6
VERDECKT
 62
     1
 10
125.042005624615399
 20
188.5752253504689975
 30
0.0000000000000284
 40
7.4999999999999183
 50
270.0000000000003979
 51
305.6590876961390109
  0
ARC
  5
EAE
  8
0
  6
VERDECKT
 62
     1
 10
125.042005624615399
 20
134.5752253504691112
 30
0.0000000000000284
 40
7.4999999999998277
 50
54.3409123038607618
 51
89.9999999999995737
  0
LINE
  5
EAF
  8
0
  6
VERDECKT
 62
     1
 10
125.042005624615399
 20
142.0752253504687985
 30
0.0000000000000284
 11
120.5506380317944064
 21
142.0752253504687985
 31
0.0000000000000274
  0
LINE
  5
EB0
  8
0
  6
VERDECKT
 62
     1
 10
125.042005624615399
 20
181.0752253504691112
 30
0.0000000000000284
 11
120.5506380317944064
 21
181.0752253504691112
 31
0.0000000000000274
  0
ENDBLK
  5
EB2
  8
0
  0
BLOCK
  8
0
  2
A$CB151C8F0
 70
     0
 10
0.0
 20
0.0
 30
0.0
  3
A$CB151C8F0
  1

  0
LINE
  5
EB6
  8
0
  6
CONTINUOUS
 10
73.9880813494243057
 20
-52.7484606327064327
 30
0.0000000000000117
 11
115.113194714164905
 21
-52.7484606327065393
 31
0.0000000000000117
210
0.0
220
1.0
230
-0.0000000000000002
  0
LINE
  5
EB7
  8
0
  6
CONTINUOUS
 10
120.5506380317946054
 20
48.2484606327063119
 30
-0.0000000000000107
 11
120.5506380317948043
 21
6.2484606327062986
 31
-0.0000000000000014
210
0.0
220
1.0
230
-0.0000000000000002
  0
ARC
  5
EB8
  8
0
  6
CONTINUOUS
 10
-80.0506380317967938
 20
-47.464664503800293
 30
0.0
 40
6.5000000000022169
210
0.0
220
-0.0000000000000002
230
-1.0
 50
354.9999999999990905
 51
359.9999999999986926
  0
ARC
  5
EB9
  8
0
  6
CONTINUOUS
 10
-109.0506380317933974
 20
-47.4646645038003925
 30
0.0
 40
6.5000000000012346
210
0.0
220
-0.0000000000000002
230
-1.0
 50
180.0000000000011937
 51
185.0000000000011937
  0
LINE
  5
EBA
  8
0
  6
CONTINUOUS
 10
115.5506380317948043
 20
1.248460632706315
 30
-0.0000000000000003
 11
115.5506380317947048
 21
-47.4646645038005275
 31
0.0000000000000105
210
0.0
220
1.0
230
-0.0000000000000002
  0
LINE
  5
EBB
  8
0
  6
CONTINUOUS
 10
73.5506380317946764
 20
1.248460632706393
 30
-0.0000000000000003
 11
73.5506380317945627
 21
-47.4646645038004422
 31
0.0000000000000105
210
0.0
220
1.0
230
-0.0000000000000002
  0
LINE
  5
EBC
  8
0
  6
CONTINUOUS
 10
73.9880813494243057
 20
-52.7484606327064327
 30
0.0000000000000117
 11
73.5753724941982341
 21
-48.0311768316603676
 31
0.0000000000000107
210
0.0
220
1.0
230
-0.0000000000000002
  0
LINE
  5
EBD
  8
0
  6
CONTINUOUS
 10
115.113194714164905
 20
-52.748460632706518
 30
0.0000000000000117
 11
115.525903569391005
 21
-48.0311768316604315
 31
0.0000000000000107
210
0.0
220
1.0
230
-0.0000000000000002
  0
ARC
  5
EBE
  8
0
  6
CONTINUOUS
 10
-120.5506380317947048
 20
1.248460632706262
 30
0.0
 40
47.0
210
0.0
220
-0.0000000000000002
230
-1.0
 50
0.0000000000001527
 51
89.9999999999999147
  0
ARC
  5
EBF
  8
0
  6
CONTINUOUS
 10
120.5506380317947048
 20
1.2484606327062779
 30
-0.0000000000000003
 40
4.9999999999999902
 50
89.9999999999980389
 51
179.9999999999996021
  0
LINE
  5
EC0
  8
0
  6
CONTINUOUS
 10
120.5506380317946054
 20
48.2484606327063119
 30
-0.0000000000000107
 11
120.5506380317948043
 21
6.2484606327062986
 31
-0.0000000000000014
210
0.0
220
1.0
230
-0.0000000000000002
  0
LINE
  5
EC1
  8
0
  6
CONTINUOUS
 10
159.5475592972069876
 20
51.3960636330253493
 30
-0.0000000000000114
 11
159.5475592972071865
 21
3.1008576323877151
 31
-0.0000000000000007
210
0.0
220
1.0
230
-0.0000000000000002
  0
ARC
  5
EC2
  8
0
  6
CONTINUOUS
 10
-153.0058818730437054
 20
36.250893378353922
 30
0.0
 40
16.4975672620175402
210
0.0
220
-0.0000000000000002
230
-1.0
 50
89.9982534496209894
 51
113.361041095018706
  0
ARC
  5
EC3
  8
0
  6
CONTINUOUS
 10
-153.0058818730437054
 20
18.2460278870592489
 30
0.0
 40
16.4975672620177001
210
0.0
220
-0.0000000000000002
230
-1.0
 50
246.6389589049807967
 51
270.0017465503781864
  0
LINE
  5
EC4
  8
0
  6
CONTINUOUS
 10
147.9145592972076884
 20
52.7483054489718768
 30
-0.0000000000000117
 11
153.0053789767991077
 21
52.7484606327065535
 31
-0.0000000000000117
210
0.0
220
1.0
230
-0.0000000000000002
  0
LINE
  5
EC5
  8
0
  6
CONTINUOUS
 10
147.914559297208001
 20
1.7486158164410439
 30
-0.0000000000000004
 11
153.0053789767993919
 21
1.7484606327064269
 31
-0.0000000000000004
210
0.0
220
1.0
230
-0.0000000000000002
  0
ARC
  5
EC6
  8
0
  6
CONTINUOUS
 10
-147.9145592972083136
 20
32.7484606327023826
 30
0.0
 40
19.9998448162694693
210
0.0
220
-0.0000000000000002
230
-1.0
 50
71.8060294016173088
 51
89.9999999999983658
  0
ARC
  5
EC7
  8
0
  6
CONTINUOUS
 10
-147.9145592972083136
 20
21.7484606327107883
 30
0.0
 40
19.9998448162696789
210
0.0
220
-0.0000000000000002
230
-1.0
 50
270.0
 51
288.1939705983808722
  0
ARC
  5
EC8
  8
0
  6
CONTINUOUS
 10
-138.5475592972074992
 20
61.248460632708202
 30
0.0
 40
10.0000000000016005
210
0.0
220
-0.0000000000000002
230
-1.0
 50
251.8060294016175931
 51
269.9999999999985221
  0
ARC
  5
EC9
  8
0
  6
CONTINUOUS
 10
-138.5475592972080108
 20
-6.7515393672949706
 30
0.0
 40
10.0000000000012008
210
0.0
220
-0.0000000000000002
230
-1.0
 50
90.0
 51
108.1939705983814974
  0
LINE
  5
ECA
  8
0
  6
CONTINUOUS
 10
138.5475592972080108
 20
3.2484606327062249
 30
-0.0000000000000007
 11
134.369384677704403
 21
3.2484606327062009
 31
-0.0000000000000007
210
0.0
220
1.0
230
-0.0000000000000002
  0
LINE
  5
ECB
  8
0
  6
CONTINUOUS
 10
138.5475592972076981
 20
51.2484606327065819
 30
-0.0000000000000114
 11
134.3693846777040903
 21
51.2484606327065606
 31
-0.0000000000000114
210
0.0
220
1.0
230
-0.0000000000000002
  0
ARC
  5
ECC
  8
0
  6
CONTINUOUS
 10
-134.3693846777034935
 20
41.248460632708472
 30
0.0
 40
9.9999999999980833
210
0.0
220
-0.0000000000000002
230
-1.0
 50
54.3409123038593833
 51
90.000000000003439
  0
ARC
  5
ECD
  8
0
  6
CONTINUOUS
 10
-134.3693846777036924
 20
13.2484606327041892
 30
0.0
 40
9.9999999999979732
210
0.0
220
-0.0000000000000002
230
-1.0
 50
270.0
 51
305.659087696144411
  0
ARC
  5
ECE
  8
0
  6
CONTINUOUS
 10
-125.0420056246151006
 20
54.2484606327070793
 30
0.0
 40
6.0000000000005631
210
0.0
220
-0.0000000000000002
230
-1.0
 50
234.3409123038599944
 51
269.9999999999977263
  0
ARC
  5
ECF
  8
0
  6
CONTINUOUS
 10
-125.042005624615399
 20
0.2484606327055179
 30
0.0
 40
6.0000000000006342
210
0.0
220
-0.0000000000000002
230
-1.0
 50
90.0000000000018758
 51
125.6590876961390961
  0
LINE
  5
ED0
  8
0
  6
CONTINUOUS
 10
125.042005624615598
 20
6.2484606327062266
 30
-0.0000000000000014
 11
120.5506380317948043
 21
6.2484606327062
 31
-0.0000000000000014
210
0.0
220
1.0
230
-0.0000000000000002
  0
LINE
  5
ED1
  8
0
  6
CONTINUOUS
 10
125.042005624615399
 20
48.2484606327064114
 30
-0.0000000000000107
 11
120.5506380317946054
 21
48.248460632706383
 31
-0.0000000000000107
210
0.0
220
1.0
230
-0.0000000000000002
  0
ARC
  5
ED2
  8
0
  6
VERDECKT
 62
     1
 10
-80.0506380317887647
 20
-47.4646645038004991
 30
0.0
 40
4.9999999999942162
210
0.0
220
-0.0000000000000002
230
-1.0
 50
354.9999999999964757
 51
0.0000000000033332
  0
ARC
  5
ED3
  8
0
  6
VERDECKT
 62
     1
 10
-109.0506380318013981
 20
-47.4646645038006127
 30
0.0
 40
4.9999999999932347
210
0.0
220
-0.0000000000000002
230
-1.0
 50
179.9999999999967031
 51
185.0000000000040075
  0
LINE
  5
ED4
  8
0
  6
VERDECKT
 62
     1
 10
114.0506380317948043
 20
1.2484606327062899
 30
-0.0000000000000003
 11
114.0506380317946054
 21
-47.4646645038003214
 31
0.0000000000000105
210
0.0
220
1.0
230
-0.0000000000000002
  0
LINE
  5
ED5
  8
0
  6
VERDECKT
 62
     1
 10
75.0506380317946906
 20
1.248460632706361
 30
-0.0000000000000003
 11
75.0506380317945485
 21
-47.464664503800222
 31
0.0000000000000105
210
0.0
220
1.0
230
-0.0000000000000002
  0
LINE
  5
ED6
  8
0
  6
VERDECKT
 62
     1
 10
75.4938111057392689
 20
-52.7484606327064327
 30
0.0000000000000117
 11
75.069664541335797
 21
-47.9004432175385872
 31
0.0000000000000106
210
0.0
220
1.0
230
-0.0000000000000002
  0
LINE
  5
ED7
  8
0
  6
VERDECKT
 62
     1
 10
113.6074649578497997
 20
-52.748460632706518
 30
0.0000000000000117
 11
114.0316115222533
 21
-47.9004432175386583
 31
0.0000000000000106
210
0.0
220
1.0
230
-0.0000000000000002
  0
ARC
  5
ED8
  8
0
  6
VERDECKT
 62
     1
 10
-120.5506380317947048
 20
1.248460632706262
 30
0.0
 40
45.4999999999999929
210
0.0
220
-0.0000000000000002
230
-1.0
 50
0.0000000000001018
 51
89.9999999999995879
  0
ARC
  5
ED9
  8
0
  6
VERDECKT
 62
     1
 10
120.5506380317947048
 20
1.2484606327062739
 30
-0.0000000000000003
 40
6.4999999999999938
 50
90.000000000001009
 51
179.999999999999801
  0
ARC
  5
EDA
  8
0
  6
VERDECKT
 62
     1
 10
-153.0053789767993919
 20
36.2484606327070011
 30
0.0
 40
14.9999999999994902
210
0.0
220
-0.0000000000000002
230
-1.0
 50
89.9999999999988063
 51
115.8581969917430996
  0
ARC
  5
EDB
  8
0
  6
VERDECKT
 62
     1
 10
-153.0053789767993919
 20
18.2484606327059105
 30
0.0
 40
14.9999999999993996
210
0.0
220
-0.0000000000000002
230
-1.0
 50
244.1418030082593873
 51
270.0000000000006253
  0
LINE
  5
EDC
  8
0
  6
VERDECKT
 62
     1
 10
153.0053789767993067
 20
3.2484606327065069
 30
-0.0000000000000007
 11
147.9145592972078873
 21
3.2484606327064869
 31
-0.0000000000000007
210
0.0
220
1.0
230
-0.0000000000000002
  0
LINE
  5
EDD
  8
0
  6
VERDECKT
 62
     1
 10
153.0053789767991077
 20
51.248460632706518
 30
-0.0000000000000114
 11
147.9145592972076884
 21
51.2484606327064967
 31
-0.0000000000000114
210
0.0
220
1.0
230
-0.0000000000000002
  0
ARC
  5
EDE
  8
0
  6
VERDECKT
 62
     1
 10
-147.9155286267400129
 20
32.745511354212411
 30
0.0
 40
18.5029493038846091
210
0.0
220
-0.0000000000000002
230
-1.0
 50
71.8060294016151346
 51
89.9969983979161441
  0
ARC
  5
EDF
  8
0
  6
VERDECKT
 62
     1
 10
-147.9155286267400982
 20
21.7514099112006782
 30
0.0
 40
18.5029493038846908
210
0.0
220
-0.0000000000000002
230
-1.0
 50
270.0030016020833159
 51
288.1939705983842259
  0
ARC
  5
EE0
  8
0
  6
VERDECKT
 62
     1
 10
-138.5475592972076129
 20
61.2484606327072925
 30
0.0
 40
11.5000000000007105
210
0.0
220
-0.0000000000000002
230
-1.0
 50
251.8060294016140119
 51
269.9999999999996021
  0
ARC
  5
EE1
  8
0
  6
VERDECKT
 62
     1
 10
-138.5475592972078118
 20
-6.75153936729492
 30
0.0
 40
11.5000000000012292
210
0.0
220
-0.0000000000000002
230
-1.0
 50
90.0000000000003979
 51
108.193970598385107
  0
LINE
  5
EE2
  8
0
  6
VERDECKT
 62
     1
 10
138.5475592972078971
 20
4.748460632706335
 30
-0.0000000000000011
 11
134.3693846777042893
 21
4.748460632706319
 31
-0.0000000000000011
210
0.0
220
1.0
230
-0.0000000000000002
  0
LINE
  5
EE3
  8
0
  6
VERDECKT
 62
     1
 10
138.5475592972076981
 20
49.7484606327065677
 30
-0.000000000000011
 11
134.3693846777040903
 21
49.7484606327065606
 31
-0.000000000000011
210
0.0
220
1.0
230
-0.0000000000000002
  0
ARC
  5
EE4
  8
0
  6
VERDECKT
 62
     1
 10
-134.3693846777040051
 20
41.2484606327070722
 30
0.0
 40
8.4999999999994671
210
0.0
220
-0.0000000000000002
230
-1.0
 50
54.340912303859767
 51
90.0000000000011511
  0
ARC
  5
EE5
  8
0
  6
VERDECKT
 62
     1
 10
-134.3693846777040903
 20
13.2484606327057097
 30
0.0
 40
8.4999999999993712
210
0.0
220
-0.0000000000000002
230
-1.0
 50
270.0
 51
305.6590876961419099
  0
ARC
  5
EE6
  8
0
  6
VERDECKT
 62
     1
 10
-125.0420056246152996
 20
54.2484606327062409
 30
0.0
 40
7.4999999999997309
210
0.0
220
-0.0000000000000002
230
-1.0
 50
234.3409123038599944
 51
269.9999999999993747
  0
ARC
  5
EE7
  8
0
  6
VERDECKT
 62
     1
 10
-125.042005624615598
 20
0.2484606327066832
 30
0.0
 40
7.4999999999996323
210
0.0
220
-0.0000000000000002
230
-1.0
 50
89.9999999999996732
 51
125.659087696139494
  0
LINE
  5
EE8
  8
0
  6
VERDECKT
 62
     1
 10
125.0420056246154985
 20
7.7484606327062506
 30
-0.0000000000000017
 11
120.5506380317945059
 21
7.7484606327062329
 31
-0.0000000000000017
210
0.0
220
1.0
230
-0.0000000000000002
  0
LINE
  5
EE9
  8
0
  6
VERDECKT
 62
     1
 10
125.042005624615399
 20
46.7484606327065393
 30
-0.0000000000000104
 11
120.5506380317943069
 21
46.748460632706518
 31
-0.0000000000000104
210
0.0
220
1.0
230
-0.0000000000000002
  0
ENDBLK
  5
EEB
  8
0
  0
ENDSEC
  0
SECTION
  2
ENTITIES
  0
TEXT
  5
8F
  8
VOLL
 10
78.076754716981128
 20
31.025947764705851
 30
0.0
 40
1.8
  1

  7
GREEKS
  0
INSERT
  5
A16
  8
ADSK_ASSOC_ENTITY_BACKUPS
  2
*S4
 10
0.0
 20
0.0
 30
0.0
  0
INSERT
  5
EB3
  8
STEMPEL
  2
A$C8E7DC971
 10
94.5506380317948185
 20
-100.6151303578628955
 30
-23.1081019355471113
  0
INSERT
  5
EEC
  8
STEMPEL
  2
A$CB151C8F0
 10
94.5506380317946764
 20
161.5752253504689975
 30
-23.1081019355470687
  0
VIEWPORT
  5
928
 67
     1
  8
0
 10
106.1640277947801962
 20
149.2307923584569096
 30
0.0
 40
533.9969448798290159
 41
299.1239570917758783
 68
     1
 69
     1
1001
ACAD
1000
MVIEW
1002
{
1070
    16
1010
0.0
1020
0.0
1030
0.0
1010
0.0
1020
0.0
1030
1.0
1040
0.0
1040
299.1239570917758783
1040
106.1640277947801962
1040
149.2307923584569096
1040
50.0
1040
0.0
1040
0.0
1070
     0
1070
  1500
1070
     1
1070
     1
1070
     0
1070
     0
1070
     0
1070
     0
1040
0.0
1040
0.0
1040
0.0
1040
10.0
1040
10.0
1040
10.0
1040
10.0
1070
     0
1002
{
1002
}
1002
}
  0
ENDSEC
  0
EOF
