  0
SECTION
  2
HEADER
  9
$ACADVER
  1
AC1009
  9
$INSBASE
 10
0.0
 20
0.0
 30
0.0
  9
$EXTMIN
 10
-134.9999999999996874
 20
-259.0000000000001137
 30
-0.0000000000000716
  9
$EXTMAX
 10
409.0
 20
322.4598835418078124
 30
0.0000000000000573
  9
$LIMMIN
 10
0.0
 20
0.0
  9
$LIMMAX
 10
595.0
 20
421.0
  9
$ORTHOMODE
 70
     1
  9
$REGENMODE
 70
     1
  9
$FILLMODE
 70
     1
  9
$QTEXTMODE
 70
     0
  9
$MIRRTEXT
 70
     1
  9
$DRAGMODE
 70
     2
  9
$LTSCALE
 40
10.0
  9
$OSMODE
 70
   511
  9
$ATTMODE
 70
     1
  9
$TEXTSIZE
 40
3.5
  9
$TRACEWID
 40
1.0
  9
$TEXTSTYLE
  7
STANDARD
  9
$CLAYER
  8
STEMPEL
  9
$CELTYPE
  6
BYLAYER
  9
$CECOLOR
 62
   256
  9
$DIMSCALE
 40
1.0
  9
$DIMASZ
 40
3.5
  9
$DIMEXO
 40
1.0
  9
$DIMDLI
 40
0.38
  9
$DIMRND
 40
0.0
  9
$DIMDLE
 40
0.0
  9
$DIMEXE
 40
1.0
  9
$DIMTP
 40
0.0
  9
$DIMTM
 40
0.000000001
  9
$DIMTXT
 40
3.5
  9
$DIMCEN
 40
0.09
  9
$DIMTSZ
 40
0.0
  9
$DIMTOL
 70
     0
  9
$DIMLIM
 70
     0
  9
$DIMTIH
 70
     0
  9
$DIMTOH
 70
     0
  9
$DIMSE1
 70
     0
  9
$DIMSE2
 70
     0
  9
$DIMTAD
 70
     1
  9
$DIMZIN
 70
     8
  9
$DIMBLK
  1

  9
$DIMASO
 70
     1
  9
$DIMSHO
 70
     0
  9
$DIMPOST
  1

  9
$DIMAPOST
  1

  9
$DIMALT
 70
     0
  9
$DIMALTD
 70
     2
  9
$DIMALTF
 40
25.3999999999999986
  9
$DIMLFAC
 40
2.0
  9
$DIMTOFL
 70
     1
  9
$DIMTVP
 40
0.0
  9
$DIMTIX
 70
     0
  9
$DIMSOXD
 70
     0
  9
$DIMSAH
 70
     0
  9
$DIMBLK1
  1

  9
$DIMBLK2
  1

  9
$DIMSTYLE
  2
LORO
  9
$DIMCLRD
 70
     0
  9
$DIMCLRE
 70
     0
  9
$DIMCLRT
 70
     1
  9
$DIMTFAC
 40
0.5
  9
$DIMGAP
 40
1.5
  9
$LUNITS
 70
     2
  9
$LUPREC
 70
     2
  9
$SKETCHINC
 40
1.0
  9
$FILLETRAD
 40
0.0
  9
$AUNITS
 70
     0
  9
$AUPREC
 70
     0
  9
$MENU
  1
ACAD
  9
$ELEVATION
 40
0.0
  9
$PELEVATION
 40
0.0
  9
$THICKNESS
 40
0.0
  9
$LIMCHECK
 70
     0
  9
$BLIPMODE
 70
     0
  9
$CHAMFERA
 40
0.0
  9
$CHAMFERB
 40
0.0
  9
$SKPOLY
 70
     0
  9
$TDCREATE
 40
2458101.3126273150555789
  9
$TDUPDATE
 40
2460539.4720601858571172
  9
$TDINDWG
 40
1.5128819443999999
  9
$TDUSRTIMER
 40
1.5128472222
  9
$USRTIMER
 70
     1
  9
$ANGBASE
 50
0.0
  9
$ANGDIR
 70
     0
  9
$PDMODE
 70
     0
  9
$PDSIZE
 40
0.0
  9
$PLINEWID
 40
0.0
  9
$COORDS
 70
     1
  9
$SPLFRAME
 70
     0
  9
$SPLINETYPE
 70
     6
  9
$SPLINESEGS
 70
     8
  9
$ATTDIA
 70
     1
  9
$ATTREQ
 70
     1
  9
$HANDLING
 70
     1
  9
$HANDSEED
  5
E1E1
  9
$SURFTAB1
 70
     6
  9
$SURFTAB2
 70
     6
  9
$SURFTYPE
 70
     6
  9
$SURFU
 70
     6
  9
$SURFV
 70
     6
  9
$UCSNAME
  2

  9
$UCSORG
 10
0.0
 20
0.0
 30
0.0
  9
$UCSXDIR
 10
1.0
 20
0.0
 30
0.0
  9
$UCSYDIR
 10
0.0
 20
1.0
 30
0.0
  9
$PUCSNAME
  2

  9
$PUCSORG
 10
0.0
 20
0.0
 30
0.0
  9
$PUCSXDIR
 10
1.0
 20
0.0
 30
0.0
  9
$PUCSYDIR
 10
0.0
 20
1.0
 30
0.0
  9
$USERI1
 70
     0
  9
$USERI2
 70
     0
  9
$USERI3
 70
     0
  9
$USERI4
 70
     0
  9
$USERI5
 70
     0
  9
$USERR1
 40
0.0
  9
$USERR2
 40
0.0
  9
$USERR3
 40
0.0
  9
$USERR4
 40
0.0
  9
$USERR5
 40
0.0
  9
$WORLDVIEW
 70
     1
  9
$SHADEDGE
 70
     3
  9
$SHADEDIF
 70
    70
  9
$TILEMODE
 70
     1
  9
$MAXACTVP
 70
    16
  9
$PLIMCHECK
 70
     0
  9
$PEXTMIN
 10
1.0000000000000000E+20
 20
1.0000000000000000E+20
 30
1.0000000000000000E+20
  9
$PEXTMAX
 10
-1.0000000000000000E+20
 20
-1.0000000000000000E+20
 30
-1.0000000000000000E+20
  9
$PLIMMIN
 10
-0.2499983258051657
 20
-0.2499992586786562
  9
$PLIMMAX
 10
593.7500016741948912
 20
419.7500007413214007
  9
$UNITMODE
 70
     0
  9
$VISRETAIN
 70
     0
  9
$PLINEGEN
 70
     0
  9
$PSLTSCALE
 70
     0
  0
ENDSEC
  0
SECTION
  2
TABLES
  0
TABLE
  2
VPORT
 70
     1
  0
VPORT
  2
*ACTIVE
 70
     0
 10
0.0
 20
0.0
 11
1.0
 21
1.0
 12
137.0
 22
-74.9999929214789631
 13
0.0
 23
0.0
 14
1.0
 24
1.0
 15
10.0
 25
10.0
 16
-0.0000000000003085
 26
0.0
 36
1389.4058558449999055
 17
0.0
 27
106.7299346923827983
 37
-0.0000000000000072
 40
584.4570994363532463
 41
1.8847807394668949
 42
50.0
 43
0.0
 44
0.0
 50
0.0
 51
0.0
 71
     0
 72
  1500
 73
     1
 74
     1
 75
     0
 76
     0
 77
     0
 78
     0
  0
ENDTAB
  0
TABLE
  2
LTYPE
 70
     3
  0
LTYPE
  2
CONTINUOUS
 70
     0
  3
Solid line
 72
    65
 73
     0
 40
0.0
  0
LTYPE
  2
STRICHPUNKT
 70
     0
  3
__ . __ . __ . __ . __ . __ . __ . __ . __ . __
 72
    65
 73
     4
 40
1.0
 49
0.5
 49
-0.25
 49
0.0
 49
-0.25
  0
LTYPE
  2
VERDECKT
 70
     0
  3
Verdeckt __ __ __ __ __ __ __ __ __ __ __ __ __
 72
    65
 73
     2
 40
0.375
 49
0.25
 49
-0.125
  0
ENDTAB
  0
TABLE
  2
LAYER
 70
     6
  0
LAYER
  2
0
 70
     0
 62
     7
  6
CONTINUOUS
  0
LAYER
  2
STEMPEL
 70
     0
 62
     3
  6
CONTINUOUS
  0
LAYER
  2
ADSK_ASSOC_ENTITY_BACKUPS
 70
     1
 62
    -7
  6
CONTINUOUS
  0
ENDTAB
  0
TABLE
  2
STYLE
 70
     2
  0
STYLE
  2
STANDARD
 70
     0
 40
0.0
 41
0.8
 50
0.0
 71
     0
 42
3.5
  3
simplex.shx
  4

  0
STYLE
  2
GREEKS
 70
     0
 40
0.0
 41
0.8
 50
0.0
 71
     0
 42
2.5
  3
SIMPLEX.shx
  4

  0
ENDTAB
  0
TABLE
  2
VIEW
 70
     0
  0
ENDTAB
  0
TABLE
  2
UCS
 70
     0
  0
ENDTAB
  0
TABLE
  2
APPID
 70
    48
  0
APPID
  2
ACAD
 70
     0
  0
APPID
  2
ACAD_NAV_VCDISPLAY
 70
     0
  0
APPID
  2
ACAD_EXEMPT_FROM_CAD_STANDARDS
 70
     0
  0
APPID
  2
ACAD_PSEXT
 70
     0
  0
APPID
  2
ACAUTHENVIRON
 70
     0
  0
APPID
  2
ACDBDYNAMICBLOCKTRUENAME
 70
     0
  0
APPID
  2
ACDBDYNAMICBLOCKGUID
 70
     0
  0
APPID
  2
ACAECLAYERSTANDARD
 70
     0
  0
APPID
  2
ACCMTRANSPARENCY
 70
     0
  0
APPID
  2
ACAD_STEPID
 70
     0
  0
APPID
  2
ACSYNERGY
 70
     0
  0
APPID
  2
SYNERGY_BODY_TBR_ID
 70
     0
  0
APPID
  2
ACAD_VIEW_EDGE_ID
 70
     0
  0
APPID
  2
ACAD_DSTYLE_DIMJAG
 70
     0
  0
APPID
  2
ACAD_DSTYLE_DIMTALN
 70
     0
  0
APPID
  2
ACADANNOMONITORALERTICONDI
 70
     0
  0
APPID
  2
ACSYNERGYSKETCH
 70
     0
  0
APPID
  2
ACAD_MODELDOC_XFORM
 70
     0
  0
APPID
  2
ACAD_DIMASSOC_CALC_DIMLFAC
 70
     0
  0
APPID
  2
ACAD_DIMASSOC_DIMLFAC
 70
     0
  0
APPID
  2
ACAD_DIMASSOC_OVERRIDDEN_D
 70
     0
  0
APPID
  2
ACADANNOPO
 70
     0
  0
APPID
  2
GRADIENTCOLOR1ACI
 70
     0
  0
APPID
  2
GRADIENTCOLOR2ACI
 70
     0
  0
APPID
  2
ACAD_DSTYLE_DIMRADIAL_EXTENSION
 70
     0
  0
APPID
  2
ACAD_MLEADERVER
 70
     0
  0
APPID
  2
ACAD_OBJECT_CHANGE_GUID
 70
     0
  0
APPID
  2
MCAD_NO_VIS
 70
     0
  0
APPID
  2
ACAD_TEMP_GRAPHIC
 70
     0
  0
APPID
  2
ACATTRIBSERVICES
 70
     0
  0
APPID
  2
DESIGNERASSEMBLIES
 70
     0
  0
APPID
  2
ACAD_DSTYLE_DIMBREAK
 70
     0
  0
APPID
  2
GENIUS_GENSCREG_15
 70
     0
  0
APPID
  2
GENIUS_GENOBJ-N-SDF_13
 70
     0
  0
APPID
  2
GENIUS_GENODEF_13
 70
     0
  0
APPID
  2
ACAD_DSTYLE_DIMARC_LENGTH_
 70
     0
  0
APPID
  2
ACAD_DSTYLE_DIM_LINETYPE
 70
     0
  0
APPID
  2
ACAD_DSTYLE_DIM_EXT1_LINETYPE
 70
     0
  0
APPID
  2
ACAD_DSTYLE_DIM_EXT2_LINETYPE
 70
     0
  0
APPID
  2
RAK
 70
     0
  0
APPID
  2
GENIUS_GENDTOL_13
 70
     0
  0
APPID
  2
ACAD_DSTYLE_DIMINSPECT
 70
     0
  0
APPID
  2
ACAD_DSTYLE_DIMANGULAR_EXT
 70
     0
  0
APPID
  2
PLOTTRANSPARENCY
 70
     0
  0
APPID
  2
PE_URL
 70
     0
  0
APPID
  2
ACADANNOAV
 70
     0
  0
APPID
  2
ACADANNOTATIVE
 70
     0
  0
APPID
  2
SYNERGY_EXCLUDED_FROM_SNAPSHOT
 70
     0
  0
ENDTAB
  0
TABLE
  2
DIMSTYLE
 70
     3
  0
DIMSTYLE
  2
LORO
 70
     0
  3

  4

  5

  6

  7

 40
1.0
 41
3.5
 42
1.0
 43
0.38
 44
1.0
 45
0.0
 46
0.0
 47
0.0
 48
0.000000001
140
3.5
141
0.09
142
0.0
143
25.3999999999999986
144
2.0
145
0.0
146
0.5
147
1.5
 71
     0
 72
     0
 73
     0
 74
     0
 75
     0
 76
     0
 77
     1
 78
     8
170
     0
171
     2
172
     1
173
     0
174
     0
175
     0
176
     0
177
     0
178
     1
  0
ENDTAB
  0
ENDSEC
  0
SECTION
  2
BLOCKS
  0
BLOCK
  8
0
  2
$MODEL_SPACE
 70
     0
 10
0.0
 20
0.0
 30
0.0
  3
$MODEL_SPACE
  1

  0
ENDBLK
  5
38
  8
0
  0
BLOCK
 67
     1
  8
0
  2
$PAPER_SPACE
 70
     0
 10
0.0
 20
0.0
 30
0.0
  3
$PAPER_SPACE
  1

  0
ENDBLK
  5
36
 67
     1
  8
0
  0
BLOCK
  8
0
  2
*S0
 70
     1
 10
0.0
 20
0.0
 30
0.0
  3
*S0
  1

  0
ENDBLK
  5
571
  8
0
  0
BLOCK
  8
0
  2
A$CAE76173E
 70
     0
 10
0.0
 20
0.0
 30
0.0
  3
A$CAE76173E
  1

  0
LINE
  5
D968
  8
0
  6
CONTINUOUS
 62
     3
 10
-11.7500000000003997
 20
-102.000000000000199
 30
0.0
 11
-128.2500000000003979
 21
-102.000000000000199
 31
-0.0000000000000284
  0
ARC
  5
D969
  8
0
  6
CONTINUOUS
 62
     3
 10
-16.1877245249583801
 20
-107.4999999999999005
 30
0.0
 40
1.500000000000099
 50
270.0000000000007958
 51
328.1457059206521194
  0
ARC
  5
D96A
  8
0
  6
CONTINUOUS
 62
     3
 10
-123.8122754750423979
 20
-107.5
 30
-0.0000000000000284
 40
1.5
 50
211.8542940793446121
 51
270.0
  0
LINE
  5
D96B
  8
0
  6
CONTINUOUS
 62
     3
 10
-123.8122754750423979
 20
-109.0
 30
-0.0000000000000284
 11
-16.1877245249583517
 21
-109.0
 31
0.0
  0
LINE
  5
D96C
  8
0
  6
CONTINUOUS
 62
     3
 10
-125.0863649190274032
 20
-108.291641388967804
 30
-0.0000000000000284
 11
-127.6475718506267043
 21
-104.1695644474551017
 31
-0.000000000000029
  0
LINE
  5
D96D
  8
0
  6
CONTINUOUS
 62
     3
 10
-14.9136350809733607
 20
-108.291641388967804
 30
0.0
 11
-12.3524281493740897
 21
-104.1695644474551017
 31
0.0000000000000006
  0
ARC
  5
D96E
  8
0
  6
CONTINUOUS
 62
     3
 10
-15.7499999999986393
 20
-102.0585207435422035
 30
0.0
 40
3.9999999999982681
 50
328.1457059206525742
 51
0.0000000000193378
  0
ARC
  5
D96F
  8
0
  6
CONTINUOUS
 62
     3
 10
-124.2500000000024016
 20
-102.0585207435422035
 30
-0.0000000000000284
 40
3.9999999999979838
 50
179.9999999999793943
 51
211.8542940793485059
  0
LINE
  5
D970
  8
0
  6
CONTINUOUS
 62
     3
 10
-128.2500000000003979
 20
-102.0585207435407966
 30
-0.0000000000000284
 11
-128.2500000000003979
 21
-102.000000000000199
 31
-0.0000000000000284
  0
LINE
  5
D971
  8
0
  6
CONTINUOUS
 62
     3
 10
-11.7500000000003997
 20
-102.0585207435407966
 30
0.0
 11
-11.7500000000003997
 21
-102.000000000000199
 31
0.0
  0
LINE
  5
D972
  8
0
  6
CONTINUOUS
 62
     3
 10
128.2499999999996021
 20
-102.000000000000199
 30
0.0000000000000284
 11
11.7499999999996003
 21
-102.000000000000199
 31
0.0
  0
ARC
  5
D973
  8
0
  6
CONTINUOUS
 62
     3
 10
123.8122754750416021
 20
-107.5
 30
0.0000000000000284
 40
1.500000000000002
 50
269.99999999999892
 51
328.1457059206542795
  0
ARC
  5
D974
  8
0
  6
CONTINUOUS
 62
     3
 10
16.1877245249575203
 20
-107.5
 30
0.0
 40
1.5
 50
211.8542940793444984
 51
270.0
  0
LINE
  5
D975
  8
0
  6
CONTINUOUS
 62
     3
 10
16.1877245249575488
 20
-109.0
 30
0.0
 11
123.8122754750416021
 21
-109.0
 31
0.0000000000000284
  0
LINE
  5
D976
  8
0
  6
CONTINUOUS
 62
     3
 10
14.9136350809725506
 20
-108.291641388967804
 30
0.0
 11
12.3524281493732797
 21
-104.1695644474551017
 31
-0.0000000000000006
  0
LINE
  5
D977
  8
0
  6
CONTINUOUS
 62
     3
 10
125.0863649190265932
 20
-108.291641388967804
 30
0.0000000000000284
 11
127.6475718506258943
 21
-104.1695644474551017
 31
0.000000000000029
  0
ARC
  5
D978
  8
0
  6
CONTINUOUS
 62
     3
 10
124.2500000000016058
 20
-102.0585207435422035
 30
0.0000000000000284
 40
3.9999999999979821
 50
328.1457059206516078
 51
0.0000000000205591
  0
ARC
  5
D979
  8
0
  6
CONTINUOUS
 62
     3
 10
15.7499999999978506
 20
-102.0585207435422035
 30
0.0
 40
3.9999999999982929
 50
179.9999999999809006
 51
211.8542940793473974
  0
LINE
  5
D97A
  8
0
  6
CONTINUOUS
 62
     3
 10
11.7499999999995897
 20
-102.0585207435407966
 30
0.0
 11
11.7499999999995897
 21
-102.000000000000199
 31
0.0
  0
LINE
  5
D97B
  8
0
  6
CONTINUOUS
 62
     3
 10
128.2499999999996021
 20
-102.0585207435407966
 30
0.0000000000000284
 11
128.2499999999996021
 21
-102.000000000000199
 31
0.0000000000000284
  0
CIRCLE
  5
D97C
  8
0
  6
CONTINUOUS
 62
     3
 10
109.9999999999993037
 20
-29.9999999999997087
 30
0.0
 40
5.0000000000000027
  0
LINE
  5
D97D
  8
0
  6
CONTINUOUS
 62
     3
 10
134.9999999999994031
 20
-89.9999999999997442
 30
0.0000000000000568
 11
134.9999999999994031
 21
90.0000000000003126
 31
0.0000000000000568
  0
LINE
  5
D97E
  8
0
  6
CONTINUOUS
 62
     3
 10
134.9999999999994031
 20
90.0000000000003126
 30
0.0000000000000568
 11
-134.9999999999996874
 21
90.0000000000003126
 31
-0.0000000000000031
  0
LINE
  5
D97F
  8
0
  6
CONTINUOUS
 62
     3
 10
-134.9999999999996874
 20
90.0000000000003126
 30
-0.0000000000000568
 11
-134.9999999999996874
 21
-89.9999999999997442
 31
-0.0000000000000568
  0
LINE
  5
D980
  8
0
  6
CONTINUOUS
 62
     3
 10
-134.9999999999996874
 20
-89.9999999999997442
 30
-0.0000000000000568
 11
134.9999999999994031
 21
-89.9999999999997442
 31
0.0000000000000031
  0
LINE
  5
D981
  8
0
  6
CONTINUOUS
 62
     3
 10
13.7671102772506995
 20
-102.0
 30
0.0
 11
12.3017487045829608
 21
-90.8694738077792863
 31
-0.0000000000000003
  0
LINE
  5
D982
  8
0
  6
CONTINUOUS
 62
     3
 10
126.2328897227461937
 20
-101.9999999999999005
 30
0.0000000000000284
 11
127.6982512954138969
 21
-90.8694738077792579
 31
0.0000000000000287
  0
ARC
  5
D983
  8
0
  6
CONTINUOUS
 62
     3
 10
128.6906846915545941
 20
-91.0011272078654372
 30
0.0000000000000284
 40
1.0011276959152791
 50
90.0565750796320827
 51
172.4434249201983107
  0
ARC
  5
D984
  8
0
  6
CONTINUOUS
 62
     3
 10
11.3093153084431606
 20
-91.0011272078654656
 30
0.0
 40
1.0011276959153039
 50
7.5565750798081126
 51
89.943424920418849
  0
LINE
  5
D985
  8
0
  6
CONTINUOUS
 62
     3
 10
-126.2328897227477
 20
-101.9999999999999005
 30
-0.0000000000000284
 11
-127.6982512954154032
 21
-90.8694738077792579
 31
-0.0000000000000287
  0
LINE
  5
D986
  8
0
  6
CONTINUOUS
 62
     3
 10
-13.7671102772521898
 20
-102.0
 30
0.0
 11
-12.3017487045844494
 21
-90.8694738077792863
 31
0.0000000000000003
  0
ARC
  5
D987
  8
0
  6
CONTINUOUS
 62
     3
 10
-11.3093153084448801
 20
-91.0011272078654656
 30
0.0
 40
1.0011276959153039
 50
90.0565750795291819
 51
172.4434249201902105
  0
ARC
  5
D988
  8
0
  6
CONTINUOUS
 62
     3
 10
-128.6906846915564131
 20
-91.0011272078654656
 30
-0.0000000000000284
 40
1.0011276959153199
 50
7.556575079802311
 51
89.9434249203077343
  0
ARC
  5
D989
  8
0
  6
CONTINUOUS
 62
     3
 10
114.9999999999995026
 20
-80.9788498428908952
 30
0.0
 40
9.4810336989170221
 50
252.0813610304946906
 51
287.9186389695051957
  0
LINE
  5
D98A
  8
0
  6
CONTINUOUS
 62
     3
 10
114.1569219381646008
 20
-29.3999999999997215
 30
0.0
 11
105.8430780618340066
 21
-29.3999999999997215
 31
0.0
  0
LINE
  5
D98B
  8
0
  6
CONTINUOUS
 62
     3
 10
105.8430780618340066
 20
-30.5999999999997208
 30
0.0
 11
114.1569219381646008
 21
-30.5999999999997208
 31
0.0
  0
ARC
  5
D98C
  8
0
  6
CONTINUOUS
 62
     3
 10
109.9999999999993037
 20
-29.99999999999973
 30
0.0
 40
4.2000000000000002
 50
8.2132107017383689
 51
171.7867892982615956
  0
ARC
  5
D98D
  8
0
  6
CONTINUOUS
 62
     3
 10
109.9999999999993037
 20
-29.99999999999973
 30
0.0
 40
4.2000000000000002
 50
188.2132107017380065
 51
351.7867892982619082
  0
CIRCLE
  5
D98E
  8
0
  6
VERDECKT
 62
     1
 10
0.0
 20
0.0000000000000092
 30
0.0
 40
50.125113364740848
  0
CIRCLE
  5
D98F
  8
0
  6
VERDECKT
 62
     1
 10
0.0000000000000311
 20
0.0000000000000014
 30
0.0
 40
51.0
  0
CIRCLE
  5
D990
  8
0
  6
VERDECKT
 62
     1
 10
0.0
 20
0.0000000000000092
 30
0.0
 40
48.1327239685572223
  0
LINE
  5
D991
  8
0
  6
VERDECKT
 62
     1
 10
-130.9999999999992042
 20
-85.9999999999997442
 30
-0.0000000000000568
 11
-130.9999999999992042
 21
-87.9999999999997442
 31
-0.0000000000000568
  0
LINE
  5
D992
  8
0
  6
VERDECKT
 62
     1
 10
-130.9999999999992042
 20
-87.9999999999997442
 30
-0.0000000000000568
 11
-115.9999999999991047
 21
-87.9999999999997442
 31
-0.0000000000000535
  0
LINE
  5
D993
  8
0
  6
VERDECKT
 62
     1
 10
-115.9999999999992042
 20
-87.9999999999997442
 30
0.0
 11
-115.9999999999992042
 21
-85.9999999999997442
 31
0.0
  0
LINE
  5
D994
  8
0
  6
VERDECKT
 62
     1
 10
-115.9999999999992042
 20
-85.9999999999997442
 30
0.0
 11
-130.9999999999992042
 21
-85.9999999999997442
 31
-0.0000000000000033
  0
LINE
  5
D995
  8
0
  6
VERDECKT
 62
     1
 10
-123.5393851075513965
 20
-101.4397880229011975
 30
-0.0000000000000284
 11
-16.4606148924494207
 21
-101.4397880229011975
 31
0.0
  0
LINE
  5
D996
  8
0
  6
VERDECKT
 62
     1
 10
-13.3000000000001304
 20
-88.2681227262480661
 30
0.0
 11
-126.7000000000006992
 21
-88.2681227262480661
 31
-0.0000000000000284
  0
LINE
  5
D997
  8
0
  6
VERDECKT
 62
     1
 10
-18.0533810699498112
 20
-81.7091474090609751
 30
0.0
 11
-121.9466189300510024
 21
-81.7091474090609751
 31
-0.0000000000000284
  0
LINE
  5
D998
  8
0
  6
VERDECKT
 62
     1
 10
-19.2000000000002196
 20
-102.0535898384869
 30
0.0
 11
-120.8000000000004945
 21
-102.0535898384869
 31
-0.0000000000000284
  0
LINE
  5
D999
  8
0
  6
VERDECKT
 62
     1
 10
-13.3000000000001304
 20
-84.0
 30
0.0
 11
-126.7000000000006992
 21
-84.0
 31
-0.0000000000000284
  0
LINE
  5
D99A
  8
0
  6
VERDECKT
 62
     1
 10
-14.9004150764192094
 20
-86.0000000000002132
 30
0.0
 11
-115.9999999999990052
 21
-86.0000000000002132
 31
0.0
  0
LINE
  5
D99B
  8
0
  6
VERDECKT
 62
     1
 10
-123.5393851075511975
 20
-101.4397880229011975
 30
-0.0000000000000284
 11
-124.9653615726681011
 21
-90.6084214233399052
 31
-0.0000000000000287
  0
LINE
  5
D99C
  8
0
  6
VERDECKT
 62
     1
 10
-16.4606148924495912
 20
-101.4397880229011975
 30
0.0
 11
-15.0346384273326503
 21
-90.6084214233398768
 31
0.0000000000000003
  0
ARC
  5
D99D
  8
0
  6
VERDECKT
 62
     1
 10
-127.9396961567894948
 20
-91.0000000000002132
 30
-0.0000000000000284
 40
3.0000000000000089
 50
7.5000000000031974
 51
65.5919703626366299
  0
ARC
  5
D99E
  8
0
  6
VERDECKT
 62
     1
 10
-12.0603038432112299
 20
-91.0000000000002558
 30
0.0
 40
3.0000000000000449
 50
114.4080296373635974
 51
172.4999999999957936
  0
LINE
  5
D99F
  8
0
  6
VERDECKT
 62
     1
 10
-120.8000000000004945
 20
-102.0535898384869
 30
-0.0000000000000284
 11
-120.8000000000004945
 21
-81.7091474090609751
 31
-0.0000000000000284
  0
LINE
  5
D9A0
  8
0
  6
VERDECKT
 62
     1
 10
-19.2000000000002196
 20
-102.0535898384869
 30
0.0
 11
-19.2000000000002196
 21
-81.7091474090609751
 31
0.0
  0
LINE
  5
D9A1
  8
0
  6
VERDECKT
 62
     1
 10
-19.2000000000002409
 20
-102.0535898384869
 30
0.0
 11
-17.6366132643920288
 21
-107.8882285676537975
 31
0.0000000000000003
  0
LINE
  5
D9A2
  8
0
  6
VERDECKT
 62
     1
 10
-120.8000000000004945
 20
-102.0535898384869
 30
-0.0000000000000284
 11
-122.363386735608799
 21
-107.8882285676537975
 31
-0.0000000000000288
  0
ARC
  5
D9A3
  8
0
  6
VERDECKT
 62
     1
 10
-16.1877245249583801
 20
-107.5
 30
0.0
 40
1.500000000000028
 50
195.0000000000011084
 51
270.0
  0
ARC
  5
D9A4
  8
0
  6
VERDECKT
 62
     1
 10
-123.8122754750423979
 20
-107.5
 30
-0.0000000000000284
 40
1.5000000000000431
 50
269.9999999999994884
 51
344.9999999999976126
  0
ARC
  5
D9A5
  8
0
  6
VERDECKT
 62
     1
 10
-36.300000000005511
 20
-89.8036890823451017
 30
0.0
 40
23.0000000000070308
 50
327.9760040253784723
 51
329.6077332645651268
  0
ARC
  5
D9A6
  8
0
  6
VERDECKT
 62
     1
 10
-103.700000000023195
 20
-89.8036890823623821
 30
-0.0000000000000284
 40
22.9999999999741611
 50
210.3922667354327132
 51
212.0239959746218972
  0
LINE
  5
D9A7
  8
0
  6
VERDECKT
 62
     1
 10
-126.7000000000006992
 20
-88.2681227262480661
 30
-0.0000000000000284
 11
-126.7000000000006992
 21
-84.0
 31
-0.0000000000000284
  0
LINE
  5
D9A8
  8
0
  6
VERDECKT
 62
     1
 10
-13.3000000000001304
 20
-88.2681227262480661
 30
0.0
 11
-13.3000000000001304
 21
-84.0
 31
0.0
  0
LINE
  5
D9A9
  8
0
  6
VERDECKT
 62
     1
 10
-125.0995849235809061
 20
-86.0000000000002132
 30
-0.0000000000000284
 11
-125.5855373731014026
 21
-84.0000000000002274
 31
-0.0000000000000285
  0
LINE
  5
D9AA
  8
0
  6
VERDECKT
 62
     1
 10
-14.9004150764198506
 20
-86.0000000000002132
 30
0.0
 11
-14.4144626268993701
 21
-84.0000000000002274
 31
0.0000000000000001
  0
ARC
  5
D9AB
  8
0
  6
VERDECKT
 62
     1
 10
-25.9635425853697299
 20
-85.7159336463200532
 30
0.0
 40
8.8670734265099433
 50
358.1641531904527938
 51
26.863882323200631
  0
ARC
  5
D9AC
  8
0
  6
VERDECKT
 62
     1
 10
-114.0364574146310019
 20
-85.7159336463200816
 30
-0.0000000000000284
 40
8.8670734265099771
 50
153.1361176767993015
 51
181.8358468095470073
  0
LINE
  5
D9AD
  8
0
  6
VERDECKT
 62
     1
 10
16.4606148924486284
 20
-101.4397880229011975
 30
0.0
 11
123.5393851075506007
 21
-101.4397880229011975
 31
0.0000000000000284
  0
LINE
  5
D9AE
  8
0
  6
VERDECKT
 62
     1
 10
126.6999999999999034
 20
-88.2681227262480661
 30
0.0000000000000284
 11
13.2999999999993292
 21
-88.2681227262480661
 31
0.0
  0
LINE
  5
D9AF
  8
0
  6
VERDECKT
 62
     1
 10
121.9466189300502066
 20
-81.7091474090609751
 30
0.0000000000000284
 11
18.0533810699490083
 21
-81.7091474090609751
 31
0.0
  0
LINE
  5
D9B0
  8
0
  6
VERDECKT
 62
     1
 10
120.7999999999997982
 20
-102.0535898384869
 30
0.0000000000000284
 11
19.1999999999994202
 21
-102.0535898384869
 31
0.0
  0
LINE
  5
D9B1
  8
0
  6
VERDECKT
 62
     1
 10
126.6999999999999034
 20
-84.0
 30
0.0000000000000284
 11
13.2999999999993292
 21
-84.0
 31
0.0
  0
LINE
  5
D9B2
  8
0
  6
VERDECKT
 62
     1
 10
115.9999999999985931
 20
-86.0000000000002132
 30
0.0
 11
14.9004150764190495
 21
-86.0000000000002132
 31
0.0
  0
LINE
  5
D9B3
  8
0
  6
VERDECKT
 62
     1
 10
16.4606148924487812
 20
-101.4397880229011975
 30
0.0
 11
15.0346384273318492
 21
-90.6084214233399052
 31
-0.0000000000000003
  0
LINE
  5
D9B4
  8
0
  6
VERDECKT
 62
     1
 10
123.5393851075504017
 20
-101.4397880229011975
 30
0.0000000000000284
 11
124.9653615726673053
 21
-90.6084214233398768
 31
0.0000000000000287
  0
ARC
  5
D9B5
  8
0
  6
VERDECKT
 62
     1
 10
12.0603038432104803
 20
-91.000000000000199
 30
0.0
 40
2.9999999999999871
 50
7.500000000002994
 51
65.5919703626368857
  0
ARC
  5
D9B6
  8
0
  6
VERDECKT
 62
     1
 10
127.939696156788699
 20
-91.0000000000002416
 30
0.0000000000000284
 40
3.000000000000032
 50
114.408029637363498
 51
172.4999999999959925
  0
LINE
  5
D9B7
  8
0
  6
VERDECKT
 62
     1
 10
19.1999999999994202
 20
-102.0535898384869
 30
0.0
 11
19.1999999999994202
 21
-81.7091474090609751
 31
0.0
  0
LINE
  5
D9B8
  8
0
  6
VERDECKT
 62
     1
 10
120.7999999999997982
 20
-102.0535898384869
 30
0.0000000000000284
 11
120.7999999999997982
 21
-81.7091474090609751
 31
0.0000000000000284
  0
LINE
  5
D9B9
  8
0
  6
VERDECKT
 62
     1
 10
120.7999999999996987
 20
-102.0535898384869
 30
0.0000000000000284
 11
122.3633867356080032
 21
-107.8882285676537975
 31
0.0000000000000288
  0
LINE
  5
D9BA
  8
0
  6
VERDECKT
 62
     1
 10
19.1999999999994415
 20
-102.0535898384869
 30
0.0
 11
17.6366132643912188
 21
-107.8882285676537975
 31
-0.0000000000000003
  0
ARC
  5
D9BB
  8
0
  6
VERDECKT
 62
     1
 10
123.8122754750416021
 20
-107.5
 30
0.0000000000000284
 40
1.500000000000042
 50
195.0000000000019043
 51
270.0
  0
ARC
  5
D9BC
  8
0
  6
VERDECKT
 62
     1
 10
16.1877245249575701
 20
-107.5
 30
0.0
 40
1.5000000000000351
 50
269.9999999999993179
 51
344.9999999999980105
  0
ARC
  5
D9BD
  8
0
  6
VERDECKT
 62
     1
 10
103.6999999999565034
 20
-89.8036890823219949
 30
0.0000000000000284
 40
23.0000000000514611
 50
327.9760040253797797
 51
329.6077332645633078
  0
ARC
  5
D9BE
  8
0
  6
VERDECKT
 62
     1
 10
36.3000000000152383
 20
-89.8036890823389342
 30
0.0
 40
23.0000000000192415
 50
210.392266735434589
 51
212.0239959746205898
  0
LINE
  5
D9BF
  8
0
  6
VERDECKT
 62
     1
 10
13.2999999999993204
 20
-88.2681227262480661
 30
0.0
 11
13.2999999999993204
 21
-84.0
 31
0.0
  0
LINE
  5
D9C0
  8
0
  6
VERDECKT
 62
     1
 10
126.6999999999999034
 20
-88.2681227262480661
 30
0.0000000000000284
 11
126.6999999999999034
 21
-84.0
 31
0.0000000000000284
  0
LINE
  5
D9C1
  8
0
  6
VERDECKT
 62
     1
 10
14.9004150764190406
 20
-86.0000000000002132
 30
0.0
 11
14.4144626268985601
 21
-84.0000000000002274
 31
-0.0000000000000001
  0
LINE
  5
D9C2
  8
0
  6
VERDECKT
 62
     1
 10
125.0995849235800961
 20
-86.0000000000002132
 30
0.0000000000000284
 11
125.5855373731006068
 21
-84.0000000000002274
 31
0.0000000000000285
  0
ARC
  5
D9C3
  8
0
  6
VERDECKT
 62
     1
 10
114.0364574146302061
 20
-85.7159336463200532
 30
0.0000000000000284
 40
8.8670734265099771
 50
358.1641531904529074
 51
26.8638823232005208
  0
ARC
  5
D9C4
  8
0
  6
VERDECKT
 62
     1
 10
25.9635425853689306
 20
-85.7159336463200532
 30
0.0
 40
8.8670734265099416
 50
153.1361176767993015
 51
181.8358468095470926
  0
LINE
  5
D9C5
  8
0
  6
VERDECKT
 62
     1
 10
130.9999999999994031
 20
79.3867513459483973
 30
0.0000000000000568
 11
115.9999999999994031
 21
79.3867513459483973
 31
0.0000000000000535
  0
LINE
  5
D9C6
  8
0
  6
VERDECKT
 62
     1
 10
130.9999999999994031
 20
81.1188021535174641
 30
0.0000000000000568
 11
130.9999999999994031
 21
79.3867513459483973
 31
0.0000000000000568
  0
LINE
  5
D9C7
  8
0
  6
VERDECKT
 62
     1
 10
130.9999999999994031
 20
81.1188021535174641
 30
0.0000000000000568
 11
115.9999999999994031
 21
81.1188021535174641
 31
0.0000000000000535
  0
LINE
  5
D9C8
  8
0
  6
VERDECKT
 62
     1
 10
115.9999999999994031
 20
81.1188021535174641
 30
0.0
 11
115.9999999999994031
 21
79.3867513459483973
 31
0.0
  0
LINE
  5
D9C9
  8
0
  6
VERDECKT
 62
     1
 10
130.9999999999994031
 20
87.4641016151379773
 30
0.0000000000000568
 11
130.9999999999994031
 21
81.1188021535174641
 31
0.0000000000000568
  0
LINE
  5
D9CA
  8
0
  6
VERDECKT
 62
     1
 10
115.9999999999994031
 20
87.4641016151379773
 30
0.0
 11
115.9999999999994031
 21
81.1188021535174641
 31
0.0
  0
LINE
  5
D9CB
  8
0
  6
VERDECKT
 62
     1
 10
130.9999999999994031
 20
87.46410161513802
 30
0.0000000000000568
 11
130.9999999999994031
 21
88.0000000000002558
 31
0.0000000000000568
  0
LINE
  5
D9CC
  8
0
  6
VERDECKT
 62
     1
 10
115.9999999999994031
 20
87.46410161513802
 30
0.0
 11
115.9999999999994031
 21
88.0000000000002558
 31
0.0
  0
LINE
  5
D9CD
  8
0
  6
VERDECKT
 62
     1
 10
130.9999999999994031
 20
83.6188021535170236
 30
0.0000000000000568
 11
115.9999999999994031
 21
83.6188021535170236
 31
0.0000000000000535
  0
LINE
  5
D9CE
  8
0
  6
VERDECKT
 62
     1
 10
130.9999999999994031
 20
81.8867513459483973
 30
0.0000000000000568
 11
115.9999999999994031
 21
81.8867513459483973
 31
0.0000000000000535
  0
LINE
  5
D9CF
  8
0
  6
VERDECKT
 62
     1
 10
115.9999999999994031
 20
86.0000000000002558
 30
0.0
 11
130.9999999999994031
 21
86.0000000000002558
 31
0.0000000000000033
  0
LINE
  5
D9D0
  8
0
  6
VERDECKT
 62
     1
 10
-130.9999999999996874
 20
79.3867513459483973
 30
-0.0000000000000568
 11
-115.9999999999997016
 21
79.3867513459483973
 31
-0.0000000000000535
  0
LINE
  5
D9D1
  8
0
  6
VERDECKT
 62
     1
 10
-130.9999999999996874
 20
81.1188021535174641
 30
-0.0000000000000568
 11
-130.9999999999996874
 21
79.3867513459483973
 31
-0.0000000000000568
  0
LINE
  5
D9D2
  8
0
  6
VERDECKT
 62
     1
 10
-115.9999999999997016
 20
81.1188021535174641
 30
0.0
 11
-115.9999999999997016
 21
79.3867513459483973
 31
0.0
  0
LINE
  5
D9D3
  8
0
  6
VERDECKT
 62
     1
 10
-130.9999999999996874
 20
81.1188021535174641
 30
-0.0000000000000568
 11
-115.9999999999997016
 21
81.1188021535174641
 31
-0.0000000000000535
  0
LINE
  5
D9D4
  8
0
  6
VERDECKT
 62
     1
 10
-130.9999999999996874
 20
87.4641016151379773
 30
-0.0000000000000568
 11
-130.9999999999996874
 21
81.1188021535174641
 31
-0.0000000000000568
  0
LINE
  5
D9D5
  8
0
  6
VERDECKT
 62
     1
 10
-115.9999999999997016
 20
87.4641016151379773
 30
0.0
 11
-115.9999999999997016
 21
81.1188021535174641
 31
0.0
  0
LINE
  5
D9D6
  8
0
  6
VERDECKT
 62
     1
 10
-130.9999999999996874
 20
87.46410161513802
 30
-0.0000000000000568
 11
-130.9999999999996874
 21
88.0000000000002558
 31
-0.0000000000000568
  0
LINE
  5
D9D7
  8
0
  6
VERDECKT
 62
     1
 10
-115.9999999999997016
 20
87.46410161513802
 30
0.0
 11
-115.9999999999997016
 21
88.0000000000002558
 31
0.0
  0
LINE
  5
D9D8
  8
0
  6
VERDECKT
 62
     1
 10
-130.9999999999996874
 20
83.6188021535170236
 30
-0.0000000000000568
 11
-115.9999999999997016
 21
83.6188021535170236
 31
-0.0000000000000535
  0
LINE
  5
D9D9
  8
0
  6
VERDECKT
 62
     1
 10
-130.9999999999996874
 20
81.8867513459483973
 30
-0.0000000000000568
 11
-115.9999999999997016
 21
81.8867513459483973
 31
-0.0000000000000535
  0
LINE
  5
D9DA
  8
0
  6
VERDECKT
 62
     1
 10
-130.9999999999996874
 20
86.0000000000002558
 30
-0.0000000000000568
 11
-115.9999999999997016
 21
86.0000000000002558
 31
-0.0000000000000535
  0
LINE
  5
D9DB
  8
0
  6
VERDECKT
 62
     1
 10
130.9999999999994031
 20
-85.9999999999997442
 30
0.0000000000000568
 11
130.9999999999994031
 21
-87.9999999999997442
 31
0.0000000000000568
  0
LINE
  5
D9DC
  8
0
  6
VERDECKT
 62
     1
 10
115.9999999999994031
 20
-85.9999999999997442
 30
0.0
 11
130.9999999999994031
 21
-85.9999999999997442
 31
0.0000000000000033
  0
LINE
  5
D9DD
  8
0
  6
VERDECKT
 62
     1
 10
115.9999999999994031
 20
-87.9999999999997442
 30
0.0
 11
115.9999999999994031
 21
-85.9999999999997442
 31
0.0
  0
LINE
  5
D9DE
  8
0
  6
VERDECKT
 62
     1
 10
130.9999999999994031
 20
-87.9999999999997442
 30
0.0000000000000568
 11
115.9999999999993037
 21
-87.9999999999997442
 31
0.0000000000000535
  0
CIRCLE
  5
D9DF
  8
0
  6
VERDECKT
 62
     1
 10
109.9999999999993037
 20
-29.9999999999997087
 30
0.0
 40
3.0000000000000031
  0
LINE
  5
D9E0
  8
0
  6
VERDECKT
 62
     1
 10
133.0000000000106866
 20
-88.0000000000062386
 30
0.0000000000000568
 11
133.0000000000106866
 21
87.9292893218751743
 31
0.0000000000000568
  0
LINE
  5
D9E1
  8
0
  6
VERDECKT
 62
     1
 10
133.0000000000106866
 20
-88.0000000000062386
 30
0.0000000000000568
 11
135.0000000000106866
 21
-88.0000000000062386
 31
0.0000000000000573
  0
LINE
  5
D9E2
  8
0
  6
VERDECKT
 62
     1
 10
133.0000000000106866
 20
87.9292893218751743
 30
0.0000000000000568
 11
135.0000000000106866
 21
87.9292893218751743
 31
0.0000000000000573
  0
LINE
  5
D9E3
  8
0
  6
VERDECKT
 62
     1
 10
-132.9292893218701863
 20
87.9999999999941593
 30
-0.0000000000000568
 11
-132.9292893218701863
 21
89.9999999999941735
 31
-0.0000000000000568
  0
LINE
  5
D9E4
  8
0
  6
VERDECKT
 62
     1
 10
132.9292893218924974
 20
87.9999999999941878
 30
0.0000000000000568
 11
-132.929289321870101
 21
87.9999999999941451
 31
-0.0000000000000022
  0
LINE
  5
D9E5
  8
0
  6
VERDECKT
 62
     1
 10
132.9292893218924974
 20
87.9999999999941878
 30
0.0000000000000568
 11
132.9292893218924974
 21
89.9999999999942162
 31
0.0000000000000568
  0
LINE
  5
D9E6
  8
0
  6
VERDECKT
 62
     1
 10
-132.9999999999882903
 20
-88.0000000000063238
 30
-0.0000000000000568
 11
-134.9999999999882903
 21
-88.0000000000063238
 31
-0.0000000000000573
  0
LINE
  5
D9E7
  8
0
  6
VERDECKT
 62
     1
 10
-132.9999999999882903
 20
87.9292893218751175
 30
-0.0000000000000568
 11
-132.9999999999882903
 21
-88.0000000000063096
 31
-0.0000000000000568
  0
LINE
  5
D9E8
  8
0
  6
VERDECKT
 62
     1
 10
-132.9999999999882903
 20
87.9292893218751175
 30
-0.0000000000000568
 11
-134.9999999999882903
 21
87.9292893218751175
 31
-0.0000000000000573
  0
CIRCLE
  5
D9E9
  8
0
  6
VERDECKT
 62
     1
 10
0.0000000000111744
 20
-0.0000000000061638
 30
0.0
 40
49.0000000000000071
  0
LINE
  5
D9EA
  8
0
  6
VERDECKT
 62
     1
 10
-130.9999999999888018
 20
87.9999999999937756
 30
-0.0000000000000284
 11
-130.9999999999888018
 21
89.9999999999938041
 31
-0.0000000000000284
  0
LINE
  5
D9EB
  8
0
  6
VERDECKT
 62
     1
 10
131.0000000000111129
 20
87.9999999999938609
 30
0.0000000000000284
 11
131.0000000000111129
 21
89.9999999999938751
 31
0.0000000000000284
  0
LINE
  5
D9EC
  8
0
  6
VERDECKT
 62
     1
 10
-132.9999999999888018
 20
85.9999999999938609
 30
-0.0000000000000284
 11
-134.9999999999888018
 21
85.9999999999938609
 31
-0.0000000000000289
  0
LINE
  5
D9ED
  8
0
  6
VERDECKT
 62
     1
 10
-130.9999999999888018
 20
85.9999999999938609
 30
-0.0000000000000284
 11
-132.9999999999888018
 21
85.9999999999938609
 31
-0.0000000000000284
  0
LINE
  5
D9EE
  8
0
  6
VERDECKT
 62
     1
 10
133.0000000000111129
 20
85.9999999999938751
 30
0.0000000000000284
 11
135.0000000000111129
 21
85.9999999999938751
 31
0.0000000000000289
  0
LINE
  5
D9EF
  8
0
  6
VERDECKT
 62
     1
 10
131.0000000000111129
 20
85.9999999999938751
 30
0.0000000000000284
 11
133.0000000000111982
 21
85.9999999999938751
 31
0.0000000000000284
  0
LINE
  5
D9F0
  8
0
  6
VERDECKT
 62
     1
 10
124.2499999999984936
 20
-101.7389476155604058
 30
0.0000000000000284
 11
15.7499999999984404
 21
-101.7389476155603063
 31
0.0
  0
LINE
  5
D9F1
  8
0
  6
VERDECKT
 62
     1
 10
-124.2499999999999005
 20
-101.7389476155603063
 30
-0.0000000000000284
 11
-15.7499999999999307
 21
-101.7389476155604058
 31
0.0
  0
LINE
  5
D9F2
  8
0
  6
VERDECKT
 62
     1
 10
-85.0000000000008242
 20
-90.0
 30
0.0
 11
-85.0000000000007532
 21
-88.0000000000001279
 31
0.0
  0
LINE
  5
D9F3
  8
0
  6
VERDECKT
 62
     1
 10
-105.0000000000005969
 20
-90.0
 30
0.0
 11
-105.0000000000004974
 21
-88.0000000000001279
 31
0.0
  0
LINE
  5
D9F4
  8
0
  6
VERDECKT
 62
     1
 10
85.0000000000009663
 20
-90.0
 30
0.0
 11
85.0000000000010374
 21
-88.0000000000001279
 31
0.0
  0
LINE
  5
D9F5
  8
0
  6
VERDECKT
 62
     1
 10
105.0000000000006963
 20
-90.0
 30
0.0
 11
105.0000000000007958
 21
-88.0000000000001279
 31
0.0
  0
LINE
  5
D9F6
  8
0
  6
VERDECKT
 62
     1
 10
133.5000000000017906
 20
-87.9999999999995453
 30
0.0000000000000568
 11
-133.5000000000032117
 21
-87.9999999999994031
 31
-0.0000000000000024
  0
LINE
  5
D9F7
  8
0
  6
VERDECKT
 62
     1
 10
-133.500000000003098
 20
-87.9999999999997726
 30
-0.0000000000000568
 11
-133.500000000003098
 21
-89.9999999999997442
 31
-0.0000000000000568
  0
LINE
  5
D9F8
  8
0
  6
VERDECKT
 62
     1
 10
133.5000000000017906
 20
-87.9999999999995453
 30
0.0000000000000568
 11
133.5000000000017053
 21
-89.9999999999995168
 31
0.0000000000000568
  0
ARC
  5
D9F9
  8
0
  6
VERDECKT
 62
     1
 10
128.6926618050491129
 20
-91.0033816737234389
 30
0.0000000000000284
 40
3.0033831379175
 50
90.0565759174150031
 51
172.443424082545107
  0
ARC
  5
D9FA
  8
0
  6
VERDECKT
 62
     1
 10
11.3073381949487697
 20
-91.0033816737234247
 30
0.0
 40
3.0033831379174658
 50
7.5565759174546656
 51
89.9434240826049347
  0
LINE
  5
D9FB
  8
0
  6
VERDECKT
 62
     1
 10
15.7499999999984297
 20
-101.7389476155604058
 30
0.0
 11
14.2846384273306199
 21
-90.6084214233397631
 31
-0.0000000000000003
  0
LINE
  5
D9FC
  8
0
  6
VERDECKT
 62
     1
 10
124.2499999999984936
 20
-101.7389476155603063
 30
0.0000000000000284
 11
125.7153615726662963
 21
-90.6084214233396352
 31
0.0000000000000287
  0
LINE
  5
D9FD
  8
0
  6
VERDECKT
 62
     1
 10
124.2499999999989058
 20
-101.7389476155604058
 30
0.0000000000000284
 11
126.2328897227465063
 21
-102.0
 31
0.0000000000000289
  0
LINE
  5
D9FE
  8
0
  6
VERDECKT
 62
     1
 10
15.7499999999983906
 20
-101.7389476155604058
 30
0.0
 11
13.7671102772506604
 21
-102.0
 31
-0.0000000000000004
  0
ARC
  5
D9FF
  8
0
  6
VERDECKT
 62
     1
 10
-11.3073381949495904
 20
-91.0033816737233963
 30
0.0
 40
3.0033831379174498
 50
90.05657591739471
 51
172.4434240825468976
  0
ARC
  5
DA00
  8
0
  6
VERDECKT
 62
     1
 10
-128.692661805049795
 20
-91.0033816737233963
 30
-0.0000000000000284
 40
3.0033831379174529
 50
7.5565759174560423
 51
89.9434240825898286
  0
LINE
  5
DA01
  8
0
  6
VERDECKT
 62
     1
 10
-124.2499999999999005
 20
-101.7389476155603063
 30
-0.0000000000000284
 11
-125.7153615726678026
 21
-90.6084214233396352
 31
-0.0000000000000287
  0
LINE
  5
DA02
  8
0
  6
VERDECKT
 62
     1
 10
-15.7499999999999201
 20
-101.7389476155604058
 30
0.0
 11
-14.2846384273321192
 21
-90.6084214233397347
 31
0.0000000000000003
  0
LINE
  5
DA03
  8
0
  6
VERDECKT
 62
     1
 10
-15.7499999999998792
 20
-101.7389476155604058
 30
0.0
 11
-13.7671102772521508
 21
-102.0
 31
0.0000000000000004
  0
LINE
  5
DA04
  8
0
  6
VERDECKT
 62
     1
 10
-124.2500000000003979
 20
-101.7389476155604058
 30
-0.0000000000000284
 11
-126.2328897227481974
 21
-102.0
 31
-0.0000000000000289
  0
LINE
  5
DA05
  8
0
  6
VERDECKT
 62
     1
 10
117.999999999999801
 20
-88.0000000000000568
 30
0.0
 11
119.9999999999995026
 21
-90.0
 31
0.0000000000000004
  0
LINE
  5
DA06
  8
0
  6
VERDECKT
 62
     1
 10
111.9999999999995026
 20
-87.9999999999999432
 30
0.0
 11
109.999999999999801
 21
-89.9999999999999147
 31
-0.0000000000000004
  0
POLYLINE
  8
0
  5
DBC1
  62
1
  66
     1
 10
0.000000
 20
0.000000
 30
0.000000
  70
     8
  0
VERTEX
  8
0
  5
DBC2
 10
111.143
 20
-88.8788
 30
2.47000e-14
  70
    32
  0
VERTEX
  8
0
  5
DBC3
 10
111.139
 20
-88.8819
 30
2.46979e-14
  70
    32
  0
VERTEX
  8
0
  5
DBC4
 10
111.136
 20
-88.8849
 30
2.46958e-14
  70
    32
  0
VERTEX
  8
0
  5
DBC5
 10
111.133
 20
-88.8879
 30
2.46938e-14
  70
    32
  0
VERTEX
  8
0
  5
DBC6
 10
111.130
 20
-88.8909
 30
2.46918e-14
  70
    32
  0
VERTEX
  8
0
  5
DBC7
 10
111.127
 20
-88.8939
 30
2.46897e-14
  70
    32
  0
VERTEX
  8
0
  5
DBC8
 10
111.124
 20
-88.8969
 30
2.46878e-14
  70
    32
  0
VERTEX
  8
0
  5
DBC9
 10
111.121
 20
-88.8999
 30
2.46858e-14
  70
    32
  0
VERTEX
  8
0
  5
DBCA
 10
111.118
 20
-88.9029
 30
2.46839e-14
  70
    32
  0
VERTEX
  8
0
  5
DBCB
 10
111.115
 20
-88.9060
 30
2.46819e-14
  70
    32
  0
VERTEX
  8
0
  5
DBCC
 10
111.112
 20
-88.9090
 30
2.46800e-14
  70
    32
  0
VERTEX
  8
0
  5
DBCD
 10
111.109
 20
-88.9120
 30
2.46782e-14
  70
    32
  0
VERTEX
  8
0
  5
DBCE
 10
111.106
 20
-88.9151
 30
2.46763e-14
  70
    32
  0
VERTEX
  8
0
  5
DBCF
 10
111.103
 20
-88.9181
 30
2.46745e-14
  70
    32
  0
VERTEX
  8
0
  5
DBD0
 10
111.100
 20
-88.9211
 30
2.46727e-14
  70
    32
  0
VERTEX
  8
0
  5
DBD1
 10
111.097
 20
-88.9242
 30
2.46709e-14
  70
    32
  0
VERTEX
  8
0
  5
DBD2
 10
111.094
 20
-88.9272
 30
2.46691e-14
  70
    32
  0
VERTEX
  8
0
  5
DBD3
 10
111.091
 20
-88.9302
 30
2.46674e-14
  70
    32
  0
VERTEX
  8
0
  5
DBD4
 10
111.087
 20
-88.9333
 30
2.46657e-14
  70
    32
  0
VERTEX
  8
0
  5
DBD5
 10
111.084
 20
-88.9363
 30
2.46640e-14
  70
    32
  0
VERTEX
  8
0
  5
DBD6
 10
111.081
 20
-88.9394
 30
2.46623e-14
  70
    32
  0
VERTEX
  8
0
  5
DBD7
 10
111.078
 20
-88.9424
 30
2.46607e-14
  70
    32
  0
VERTEX
  8
0
  5
DBD8
 10
111.075
 20
-88.9455
 30
2.46590e-14
  70
    32
  0
VERTEX
  8
0
  5
DBD9
 10
111.072
 20
-88.9485
 30
2.46574e-14
  70
    32
  0
VERTEX
  8
0
  5
DBDA
 10
111.069
 20
-88.9516
 30
2.46558e-14
  70
    32
  0
VERTEX
  8
0
  5
DBDB
 10
111.066
 20
-88.9547
 30
2.46543e-14
  70
    32
  0
VERTEX
  8
0
  5
DBDC
 10
111.063
 20
-88.9577
 30
2.46527e-14
  70
    32
  0
VERTEX
  8
0
  5
DBDD
 10
111.060
 20
-88.9608
 30
2.46512e-14
  70
    32
  0
VERTEX
  8
0
  5
DBDE
 10
111.057
 20
-88.9639
 30
2.46497e-14
  70
    32
  0
VERTEX
  8
0
  5
DBDF
 10
111.053
 20
-88.9669
 30
2.46483e-14
  70
    32
  0
VERTEX
  8
0
  5
DBE0
 10
111.050
 20
-88.9700
 30
2.46468e-14
  70
    32
  0
VERTEX
  8
0
  5
DBE1
 10
111.047
 20
-88.9731
 30
2.46454e-14
  70
    32
  0
VERTEX
  8
0
  5
DBE2
 10
111.044
 20
-88.9761
 30
2.46440e-14
  70
    32
  0
VERTEX
  8
0
  5
DBE3
 10
111.041
 20
-88.9792
 30
2.46426e-14
  70
    32
  0
VERTEX
  8
0
  5
DBE4
 10
111.038
 20
-88.9823
 30
2.46412e-14
  70
    32
  0
VERTEX
  8
0
  5
DBE5
 10
111.035
 20
-88.9854
 30
2.46399e-14
  70
    32
  0
VERTEX
  8
0
  5
DBE6
 10
111.032
 20
-88.9885
 30
2.46386e-14
  70
    32
  0
VERTEX
  8
0
  5
DBE7
 10
111.028
 20
-88.9916
 30
2.46373e-14
  70
    32
  0
VERTEX
  8
0
  5
DBE8
 10
111.025
 20
-88.9947
 30
2.46360e-14
  70
    32
  0
VERTEX
  8
0
  5
DBE9
 10
111.022
 20
-88.9978
 30
2.46347e-14
  70
    32
  0
VERTEX
  8
0
  5
DBEA
 10
111.019
 20
-89.0009
 30
2.46335e-14
  70
    32
  0
VERTEX
  8
0
  5
DBEB
 10
111.016
 20
-89.0040
 30
2.46323e-14
  70
    32
  0
VERTEX
  8
0
  5
DBEC
 10
111.013
 20
-89.0071
 30
2.46311e-14
  70
    32
  0
VERTEX
  8
0
  5
DBED
 10
111.010
 20
-89.0102
 30
2.46300e-14
  70
    32
  0
VERTEX
  8
0
  5
DBEE
 10
111.007
 20
-89.0133
 30
2.46288e-14
  70
    32
  0
VERTEX
  8
0
  5
DBEF
 10
111.003
 20
-89.0164
 30
2.46277e-14
  70
    32
  0
VERTEX
  8
0
  5
DBF0
 10
111.000
 20
-89.0195
 30
2.46266e-14
  70
    32
  0
VERTEX
  8
0
  5
DBF1
 10
110.997
 20
-89.0226
 30
2.46255e-14
  70
    32
  0
VERTEX
  8
0
  5
DBF2
 10
110.994
 20
-89.0257
 30
2.46245e-14
  70
    32
  0
VERTEX
  8
0
  5
DBF3
 10
110.991
 20
-89.0288
 30
2.46234e-14
  70
    32
  0
VERTEX
  8
0
  5
DBF4
 10
110.988
 20
-89.0320
 30
2.46224e-14
  70
    32
  0
VERTEX
  8
0
  5
DBF5
 10
110.984
 20
-89.0351
 30
2.46214e-14
  70
    32
  0
VERTEX
  8
0
  5
DBF6
 10
110.981
 20
-89.0382
 30
2.46205e-14
  70
    32
  0
VERTEX
  8
0
  5
DBF7
 10
110.978
 20
-89.0413
 30
2.46195e-14
  70
    32
  0
VERTEX
  8
0
  5
DBF8
 10
110.975
 20
-89.0445
 30
2.46186e-14
  70
    32
  0
VERTEX
  8
0
  5
DBF9
 10
110.972
 20
-89.0476
 30
2.46177e-14
  70
    32
  0
VERTEX
  8
0
  5
DBFA
 10
110.969
 20
-89.0507
 30
2.46168e-14
  70
    32
  0
VERTEX
  8
0
  5
DBFB
 10
110.965
 20
-89.0539
 30
2.46160e-14
  70
    32
  0
VERTEX
  8
0
  5
DBFC
 10
110.962
 20
-89.0570
 30
2.46152e-14
  70
    32
  0
VERTEX
  8
0
  5
DBFD
 10
110.959
 20
-89.0602
 30
2.46144e-14
  70
    32
  0
VERTEX
  8
0
  5
DBFE
 10
110.956
 20
-89.0633
 30
2.46136e-14
  70
    32
  0
VERTEX
  8
0
  5
DBFF
 10
110.953
 20
-89.0665
 30
2.46128e-14
  70
    32
  0
VERTEX
  8
0
  5
DC00
 10
110.950
 20
-89.0696
 30
2.46121e-14
  70
    32
  0
VERTEX
  8
0
  5
DC01
 10
110.946
 20
-89.0728
 30
2.46113e-14
  70
    32
  0
VERTEX
  8
0
  5
DC02
 10
110.943
 20
-89.0759
 30
2.46106e-14
  70
    32
  0
VERTEX
  8
0
  5
DC03
 10
110.940
 20
-89.0791
 30
2.46100e-14
  70
    32
  0
VERTEX
  8
0
  5
DC04
 10
110.937
 20
-89.0822
 30
2.46093e-14
  70
    32
  0
VERTEX
  8
0
  5
DC05
 10
110.934
 20
-89.0854
 30
2.46087e-14
  70
    32
  0
VERTEX
  8
0
  5
DC06
 10
110.930
 20
-89.0886
 30
2.46081e-14
  70
    32
  0
VERTEX
  8
0
  5
DC07
 10
110.927
 20
-89.0917
 30
2.46075e-14
  70
    32
  0
VERTEX
  8
0
  5
DC08
 10
110.924
 20
-89.0949
 30
2.46069e-14
  70
    32
  0
VERTEX
  8
0
  5
DC09
 10
110.921
 20
-89.0981
 30
2.46064e-14
  70
    32
  0
VERTEX
  8
0
  5
DC0A
 10
110.918
 20
-89.1013
 30
2.46059e-14
  70
    32
  0
VERTEX
  8
0
  5
DC0B
 10
110.914
 20
-89.1044
 30
2.46054e-14
  70
    32
  0
VERTEX
  8
0
  5
DC0C
 10
110.911
 20
-89.1076
 30
2.46049e-14
  70
    32
  0
VERTEX
  8
0
  5
DC0D
 10
110.908
 20
-89.1108
 30
2.46044e-14
  70
    32
  0
VERTEX
  8
0
  5
DC0E
 10
110.905
 20
-89.1140
 30
2.46040e-14
  70
    32
  0
VERTEX
  8
0
  5
DC0F
 10
110.902
 20
-89.1172
 30
2.46036e-14
  70
    32
  0
VERTEX
  8
0
  5
DC10
 10
110.898
 20
-89.1204
 30
2.46032e-14
  70
    32
  0
VERTEX
  8
0
  5
DC11
 10
110.895
 20
-89.1236
 30
2.46028e-14
  70
    32
  0
VERTEX
  8
0
  5
DC12
 10
110.892
 20
-89.1267
 30
2.46025e-14
  70
    32
  0
VERTEX
  8
0
  5
DC13
 10
110.889
 20
-89.1299
 30
2.46022e-14
  70
    32
  0
VERTEX
  8
0
  5
DC14
 10
110.885
 20
-89.1331
 30
2.46019e-14
  70
    32
  0
VERTEX
  8
0
  5
DC15
 10
110.882
 20
-89.1364
 30
2.46016e-14
  70
    32
  0
VERTEX
  8
0
  5
DC16
 10
110.879
 20
-89.1396
 30
2.46013e-14
  70
    32
  0
VERTEX
  8
0
  5
DC17
 10
110.876
 20
-89.1428
 30
2.46011e-14
  70
    32
  0
VERTEX
  8
0
  5
DC18
 10
110.872
 20
-89.1460
 30
2.46009e-14
  70
    32
  0
VERTEX
  8
0
  5
DC19
 10
110.869
 20
-89.1492
 30
2.46007e-14
  70
    32
  0
VERTEX
  8
0
  5
DC1A
 10
110.866
 20
-89.1524
 30
2.46005e-14
  70
    32
  0
VERTEX
  8
0
  5
DC1B
 10
110.863
 20
-89.1556
 30
2.46004e-14
  70
    32
  0
VERTEX
  8
0
  5
DC1C
 10
110.859
 20
-89.1589
 30
2.46003e-14
  70
    32
  0
VERTEX
  8
0
  5
DC1D
 10
110.856
 20
-89.1621
 30
2.46002e-14
  70
    32
  0
VERTEX
  8
0
  5
DC1E
 10
110.853
 20
-89.1653
 30
2.46001e-14
  70
    32
  0
VERTEX
  8
0
  5
DC1F
 10
110.850
 20
-89.1685
 30
2.46000e-14
  70
    32
  0
VERTEX
  8
0
  5
DC20
 10
110.846
 20
-89.1718
 30
2.46000e-14
  70
    32
  0
VERTEX
  8
0
  5
DC21
 10
110.843
 20
-89.1750
 30
2.46000e-14
  70
    32
  0
SEQEND
  8
0
  5
DC22
  0
LINE
  5
DA08
  8
0
  6
VERDECKT
 62
     1
 10
111.1425340447590031
 20
-88.8788498428909008
 30
0.0
 11
118.8574659552400021
 21
-88.8788498428909008
 31
0.0000000000000017
  0
POLYLINE
  8
0
  5
DC23
  62
1
  66
     1
 10
0.000000
 20
0.000000
 30
0.000000
  70
     8
  0
VERTEX
  8
0
  5
DC24
 10
119.157
 20
-89.1750
 30
2.65000e-14
  70
    32
  0
VERTEX
  8
0
  5
DC25
 10
119.154
 20
-89.1718
 30
2.64979e-14
  70
    32
  0
VERTEX
  8
0
  5
DC26
 10
119.150
 20
-89.1685
 30
2.64958e-14
  70
    32
  0
VERTEX
  8
0
  5
DC27
 10
119.147
 20
-89.1653
 30
2.64938e-14
  70
    32
  0
VERTEX
  8
0
  5
DC28
 10
119.144
 20
-89.1621
 30
2.64918e-14
  70
    32
  0
VERTEX
  8
0
  5
DC29
 10
119.141
 20
-89.1589
 30
2.64897e-14
  70
    32
  0
VERTEX
  8
0
  5
DC2A
 10
119.137
 20
-89.1556
 30
2.64878e-14
  70
    32
  0
VERTEX
  8
0
  5
DC2B
 10
119.134
 20
-89.1524
 30
2.64858e-14
  70
    32
  0
VERTEX
  8
0
  5
DC2C
 10
119.131
 20
-89.1492
 30
2.64839e-14
  70
    32
  0
VERTEX
  8
0
  5
DC2D
 10
119.128
 20
-89.1460
 30
2.64819e-14
  70
    32
  0
VERTEX
  8
0
  5
DC2E
 10
119.124
 20
-89.1428
 30
2.64800e-14
  70
    32
  0
VERTEX
  8
0
  5
DC2F
 10
119.121
 20
-89.1396
 30
2.64782e-14
  70
    32
  0
VERTEX
  8
0
  5
DC30
 10
119.118
 20
-89.1364
 30
2.64763e-14
  70
    32
  0
VERTEX
  8
0
  5
DC31
 10
119.115
 20
-89.1331
 30
2.64745e-14
  70
    32
  0
VERTEX
  8
0
  5
DC32
 10
119.111
 20
-89.1299
 30
2.64727e-14
  70
    32
  0
VERTEX
  8
0
  5
DC33
 10
119.108
 20
-89.1267
 30
2.64709e-14
  70
    32
  0
VERTEX
  8
0
  5
DC34
 10
119.105
 20
-89.1236
 30
2.64691e-14
  70
    32
  0
VERTEX
  8
0
  5
DC35
 10
119.102
 20
-89.1204
 30
2.64674e-14
  70
    32
  0
VERTEX
  8
0
  5
DC36
 10
119.098
 20
-89.1172
 30
2.64657e-14
  70
    32
  0
VERTEX
  8
0
  5
DC37
 10
119.095
 20
-89.1140
 30
2.64640e-14
  70
    32
  0
VERTEX
  8
0
  5
DC38
 10
119.092
 20
-89.1108
 30
2.64623e-14
  70
    32
  0
VERTEX
  8
0
  5
DC39
 10
119.089
 20
-89.1076
 30
2.64607e-14
  70
    32
  0
VERTEX
  8
0
  5
DC3A
 10
119.086
 20
-89.1044
 30
2.64590e-14
  70
    32
  0
VERTEX
  8
0
  5
DC3B
 10
119.082
 20
-89.1013
 30
2.64574e-14
  70
    32
  0
VERTEX
  8
0
  5
DC3C
 10
119.079
 20
-89.0981
 30
2.64558e-14
  70
    32
  0
VERTEX
  8
0
  5
DC3D
 10
119.076
 20
-89.0949
 30
2.64543e-14
  70
    32
  0
VERTEX
  8
0
  5
DC3E
 10
119.073
 20
-89.0917
 30
2.64527e-14
  70
    32
  0
VERTEX
  8
0
  5
DC3F
 10
119.070
 20
-89.0886
 30
2.64512e-14
  70
    32
  0
VERTEX
  8
0
  5
DC40
 10
119.066
 20
-89.0854
 30
2.64497e-14
  70
    32
  0
VERTEX
  8
0
  5
DC41
 10
119.063
 20
-89.0822
 30
2.64483e-14
  70
    32
  0
VERTEX
  8
0
  5
DC42
 10
119.060
 20
-89.0791
 30
2.64468e-14
  70
    32
  0
VERTEX
  8
0
  5
DC43
 10
119.057
 20
-89.0759
 30
2.64454e-14
  70
    32
  0
VERTEX
  8
0
  5
DC44
 10
119.054
 20
-89.0728
 30
2.64440e-14
  70
    32
  0
VERTEX
  8
0
  5
DC45
 10
119.050
 20
-89.0696
 30
2.64426e-14
  70
    32
  0
VERTEX
  8
0
  5
DC46
 10
119.047
 20
-89.0665
 30
2.64412e-14
  70
    32
  0
VERTEX
  8
0
  5
DC47
 10
119.044
 20
-89.0633
 30
2.64399e-14
  70
    32
  0
VERTEX
  8
0
  5
DC48
 10
119.041
 20
-89.0602
 30
2.64386e-14
  70
    32
  0
VERTEX
  8
0
  5
DC49
 10
119.038
 20
-89.0570
 30
2.64373e-14
  70
    32
  0
VERTEX
  8
0
  5
DC4A
 10
119.035
 20
-89.0539
 30
2.64360e-14
  70
    32
  0
VERTEX
  8
0
  5
DC4B
 10
119.031
 20
-89.0507
 30
2.64347e-14
  70
    32
  0
VERTEX
  8
0
  5
DC4C
 10
119.028
 20
-89.0476
 30
2.64335e-14
  70
    32
  0
VERTEX
  8
0
  5
DC4D
 10
119.025
 20
-89.0445
 30
2.64323e-14
  70
    32
  0
VERTEX
  8
0
  5
DC4E
 10
119.022
 20
-89.0413
 30
2.64311e-14
  70
    32
  0
VERTEX
  8
0
  5
DC4F
 10
119.019
 20
-89.0382
 30
2.64300e-14
  70
    32
  0
VERTEX
  8
0
  5
DC50
 10
119.016
 20
-89.0351
 30
2.64288e-14
  70
    32
  0
VERTEX
  8
0
  5
DC51
 10
119.012
 20
-89.0320
 30
2.64277e-14
  70
    32
  0
VERTEX
  8
0
  5
DC52
 10
119.009
 20
-89.0288
 30
2.64266e-14
  70
    32
  0
VERTEX
  8
0
  5
DC53
 10
119.006
 20
-89.0257
 30
2.64255e-14
  70
    32
  0
VERTEX
  8
0
  5
DC54
 10
119.003
 20
-89.0226
 30
2.64245e-14
  70
    32
  0
VERTEX
  8
0
  5
DC55
 10
119.000
 20
-89.0195
 30
2.64234e-14
  70
    32
  0
VERTEX
  8
0
  5
DC56
 10
118.997
 20
-89.0164
 30
2.64224e-14
  70
    32
  0
VERTEX
  8
0
  5
DC57
 10
118.993
 20
-89.0133
 30
2.64214e-14
  70
    32
  0
VERTEX
  8
0
  5
DC58
 10
118.990
 20
-89.0102
 30
2.64205e-14
  70
    32
  0
VERTEX
  8
0
  5
DC59
 10
118.987
 20
-89.0071
 30
2.64195e-14
  70
    32
  0
VERTEX
  8
0
  5
DC5A
 10
118.984
 20
-89.0040
 30
2.64186e-14
  70
    32
  0
VERTEX
  8
0
  5
DC5B
 10
118.981
 20
-89.0009
 30
2.64177e-14
  70
    32
  0
VERTEX
  8
0
  5
DC5C
 10
118.978
 20
-88.9978
 30
2.64168e-14
  70
    32
  0
VERTEX
  8
0
  5
DC5D
 10
118.975
 20
-88.9947
 30
2.64160e-14
  70
    32
  0
VERTEX
  8
0
  5
DC5E
 10
118.972
 20
-88.9916
 30
2.64152e-14
  70
    32
  0
VERTEX
  8
0
  5
DC5F
 10
118.968
 20
-88.9885
 30
2.64144e-14
  70
    32
  0
VERTEX
  8
0
  5
DC60
 10
118.965
 20
-88.9854
 30
2.64136e-14
  70
    32
  0
VERTEX
  8
0
  5
DC61
 10
118.962
 20
-88.9823
 30
2.64128e-14
  70
    32
  0
VERTEX
  8
0
  5
DC62
 10
118.959
 20
-88.9792
 30
2.64121e-14
  70
    32
  0
VERTEX
  8
0
  5
DC63
 10
118.956
 20
-88.9761
 30
2.64113e-14
  70
    32
  0
VERTEX
  8
0
  5
DC64
 10
118.953
 20
-88.9731
 30
2.64106e-14
  70
    32
  0
VERTEX
  8
0
  5
DC65
 10
118.950
 20
-88.9700
 30
2.64100e-14
  70
    32
  0
VERTEX
  8
0
  5
DC66
 10
118.947
 20
-88.9669
 30
2.64093e-14
  70
    32
  0
VERTEX
  8
0
  5
DC67
 10
118.943
 20
-88.9639
 30
2.64087e-14
  70
    32
  0
VERTEX
  8
0
  5
DC68
 10
118.940
 20
-88.9608
 30
2.64081e-14
  70
    32
  0
VERTEX
  8
0
  5
DC69
 10
118.937
 20
-88.9577
 30
2.64075e-14
  70
    32
  0
VERTEX
  8
0
  5
DC6A
 10
118.934
 20
-88.9547
 30
2.64069e-14
  70
    32
  0
VERTEX
  8
0
  5
DC6B
 10
118.931
 20
-88.9516
 30
2.64064e-14
  70
    32
  0
VERTEX
  8
0
  5
DC6C
 10
118.928
 20
-88.9485
 30
2.64059e-14
  70
    32
  0
VERTEX
  8
0
  5
DC6D
 10
118.925
 20
-88.9455
 30
2.64054e-14
  70
    32
  0
VERTEX
  8
0
  5
DC6E
 10
118.922
 20
-88.9424
 30
2.64049e-14
  70
    32
  0
VERTEX
  8
0
  5
DC6F
 10
118.919
 20
-88.9394
 30
2.64044e-14
  70
    32
  0
VERTEX
  8
0
  5
DC70
 10
118.916
 20
-88.9363
 30
2.64040e-14
  70
    32
  0
VERTEX
  8
0
  5
DC71
 10
118.913
 20
-88.9333
 30
2.64036e-14
  70
    32
  0
VERTEX
  8
0
  5
DC72
 10
118.909
 20
-88.9302
 30
2.64032e-14
  70
    32
  0
VERTEX
  8
0
  5
DC73
 10
118.906
 20
-88.9272
 30
2.64028e-14
  70
    32
  0
VERTEX
  8
0
  5
DC74
 10
118.903
 20
-88.9242
 30
2.64025e-14
  70
    32
  0
VERTEX
  8
0
  5
DC75
 10
118.900
 20
-88.9211
 30
2.64022e-14
  70
    32
  0
VERTEX
  8
0
  5
DC76
 10
118.897
 20
-88.9181
 30
2.64019e-14
  70
    32
  0
VERTEX
  8
0
  5
DC77
 10
118.894
 20
-88.9151
 30
2.64016e-14
  70
    32
  0
VERTEX
  8
0
  5
DC78
 10
118.891
 20
-88.9120
 30
2.64013e-14
  70
    32
  0
VERTEX
  8
0
  5
DC79
 10
118.888
 20
-88.9090
 30
2.64011e-14
  70
    32
  0
VERTEX
  8
0
  5
DC7A
 10
118.885
 20
-88.9060
 30
2.64009e-14
  70
    32
  0
VERTEX
  8
0
  5
DC7B
 10
118.882
 20
-88.9029
 30
2.64007e-14
  70
    32
  0
VERTEX
  8
0
  5
DC7C
 10
118.879
 20
-88.8999
 30
2.64005e-14
  70
    32
  0
VERTEX
  8
0
  5
DC7D
 10
118.876
 20
-88.8969
 30
2.64004e-14
  70
    32
  0
VERTEX
  8
0
  5
DC7E
 10
118.873
 20
-88.8939
 30
2.64003e-14
  70
    32
  0
VERTEX
  8
0
  5
DC7F
 10
118.870
 20
-88.8909
 30
2.64002e-14
  70
    32
  0
VERTEX
  8
0
  5
DC80
 10
118.867
 20
-88.8879
 30
2.64001e-14
  70
    32
  0
VERTEX
  8
0
  5
DC81
 10
118.864
 20
-88.8849
 30
2.64000e-14
  70
    32
  0
VERTEX
  8
0
  5
DC82
 10
118.861
 20
-88.8819
 30
2.64000e-14
  70
    32
  0
VERTEX
  8
0
  5
DC83
 10
118.857
 20
-88.8788
 30
2.64000e-14
  70
    32
  0
SEQEND
  8
0
  5
DC84
  0
LINE
  5
DA0A
  8
0
  6
VERDECKT
 62
     1
 10
119.1569219381648992
 20
-89.4999999999999858
 30
0.0
 11
119.1569219381648992
 21
-89.1749999999999829
 31
0.0
  0
ARC
  5
DA0B
  8
0
  6
VERDECKT
 62
     1
 10
114.9999999999996021
 20
-80.9788498428908667
 30
0.0
 40
9.4810336989170576
 50
243.9952239226182087
 51
252.0813610304946053
  0
ARC
  5
DA0C
  8
0
  6
VERDECKT
 62
     1
 10
114.9999999999997016
 20
-80.9788498428911794
 30
0.0
 40
9.4810336989167077
 50
287.9186389695050821
 51
296.0047760773820187
  0
LINE
  5
DA0D
  8
0
  6
VERDECKT
 62
     1
 10
110.843078061834305
 20
-89.1749999999999829
 30
0.0
 11
110.843078061834305
 21
-89.4999999999999858
 31
0.0
  0
LINE
  5
DA0E
  8
0
  6
VERDECKT
 62
     1
 10
111.1425340447590031
 20
-88.8788498428909008
 30
0.0
 11
111.0961501571085961
 21
-88.8788498428909008
 31
0.0
  0
LINE
  5
DA0F
  8
0
  6
VERDECKT
 62
     1
 10
118.9038498428904944
 20
-88.8788498428909008
 30
0.0
 11
118.8574659552400021
 21
-88.8788498428909008
 31
0.0
  0
LINE
  5
DA10
  8
0
  6
VERDECKT
 62
     1
 10
119.1569219381647997
 20
-89.4999999999999858
 30
0.0
 11
110.843078061834305
 21
-89.4999999999999858
 31
0.0
  0
LINE
  5
DA11
  8
0
  6
VERDECKT
 62
     1
 10
110.8430780618342055
 20
-89.1749999999999829
 30
0.0
 11
119.1569219381648992
 21
-89.1749999999999829
 31
0.0
  0
LINE
  5
DA12
  8
0
  6
VERDECKT
 62
     1
 10
112.9999999999995026
 20
-85.3999999999999631
 30
0.0
 11
116.9999999999995026
 21
-85.3999999999999631
 31
0.0
  0
LINE
  5
DA13
  8
0
  6
VERDECKT
 62
     1
 10
113.1749999999995993
 20
-86.2749999999999631
 30
0.0
 11
116.8249999999996049
 21
-86.2749999999999631
 31
0.0
  0
LINE
  5
DA14
  8
0
  6
VERDECKT
 62
     1
 10
112.9999999999995026
 20
-79.4999999999999858
 30
0.0
 11
116.9999999999995026
 21
-79.4999999999999858
 31
0.0
  0
LINE
  5
DA15
  8
0
  6
VERDECKT
 62
     1
 10
113.1749999999995993
 20
-86.2749999999999631
 30
0.0
 11
112.9999999999995026
 21
-85.3999999999999631
 31
0.0
  0
LINE
  5
DA16
  8
0
  6
VERDECKT
 62
     1
 10
116.8249999999995055
 20
-86.2749999999999631
 30
0.0
 11
116.9999999999995026
 21
-85.3999999999999631
 31
0.0
  0
LINE
  5
DA17
  8
0
  6
VERDECKT
 62
     1
 10
112.9999999999995026
 20
-85.3999999999999631
 30
0.0
 11
112.9999999999995026
 21
-79.4999999999999858
 31
0.0
  0
LINE
  5
DA18
  8
0
  6
VERDECKT
 62
     1
 10
116.9999999999995026
 20
-85.3999999999999631
 30
0.0
 11
116.9999999999995026
 21
-79.5
 31
0.0
  0
ARC
  5
DA19
  8
0
  6
VERDECKT
 62
     1
 10
117.8249999999995055
 20
-86.3857864376269049
 30
0.0
 40
0.9999999999999175
 50
179.9999999999984084
 51
225.0000000000017053
  0
ARC
  5
DA1A
  8
0
  6
VERDECKT
 62
     1
 10
112.1749999999995993
 20
-86.3857864376269049
 30
0.0
 40
0.9999999999999147
 50
314.9999999999982947
 51
0.0000000000016284
  0
LINE
  5
DA1B
  8
0
  6
VERDECKT
 62
     1
 10
117.1178932188129949
 20
-87.0928932188134155
 30
0.0
 11
118.9038498428904944
 21
-88.8788498428909008
 31
0.0000000000000004
  0
LINE
  5
DA1C
  8
0
  6
VERDECKT
 62
     1
 10
112.8821067811860956
 20
-87.0928932188134155
 30
0.0
 11
111.0961501571085961
 21
-88.8788498428909008
 31
-0.0000000000000004
  0
LINE
  5
DA1D
  8
0
  6
VERDECKT
 62
     1
 10
113.1749999999995993
 20
-86.3857864376268765
 30
0.0
 11
113.1749999999995993
 21
-86.2749999999999631
 31
0.0
  0
LINE
  5
DA1E
  8
0
  6
VERDECKT
 62
     1
 10
116.8249999999996049
 20
-86.3857864376269049
 30
0.0
 11
116.8249999999996049
 21
-86.2749999999999631
 31
0.0
  0
ARC
  5
DA1F
  8
0
  6
VERDECKT
 62
     1
 10
109.9999999999992042
 20
-29.9999999999997087
 30
0.0
 40
3.903849842890827
 50
171.1589143224246925
 51
188.8410856775753075
  0
ARC
  5
DA20
  8
0
  6
VERDECKT
 62
     1
 10
109.9999999999994031
 20
-29.9999999999997087
 30
0.0
 40
3.9038498428909052
 50
351.1589143224247778
 51
8.8410856775751405
  0
CIRCLE
  5
DA21
  8
0
  6
VERDECKT
 62
     1
 10
109.9999999999993037
 20
-29.9999999999997087
 30
0.0
 40
2.0
  0
CIRCLE
  5
DA22
  8
0
  6
VERDECKT
 62
     1
 10
109.9999999999993037
 20
-29.9999999999997087
 30
0.0
 40
1.825
  0
ENDBLK
  5
DA24
  8
0
  0
BLOCK
  8
0
  2
A$CC9E0CA15
 70
     0
 10
0.0
 20
0.0
 30
0.0
  3
A$CC9E0CA15
  1

  0
LINE
  5
DA28
  8
0
  6
CONTINUOUS
 62
     3
 10
50.1251133647408835
 20
0.0000000000001563
 30
0.0
 11
0.0000000000000071
 21
0.0000000000001705
 31
0.0
210
0.0000000000000002
220
1.0
230
-0.0000000000000002
  0
LINE
  5
DA29
  8
0
  6
CONTINUOUS
 62
     3
 10
-0.0000000000000067
 20
0.0000000000001705
 30
0.0
 11
-50.1251133647408409
 21
0.0000000000001847
 31
0.0
210
0.0000000000000002
220
1.0
230
-0.0000000000000002
  0
ARC
  5
DA2A
  8
0
  6
CONTINUOUS
 62
     3
 10
-49.9999999999993321
 20
10.0436609429101296
 30
0.0
 40
1.000000000000675
210
0.0
220
-0.0000000000000002
230
-1.0
 50
179.9999999999994884
 51
184.9999999999959925
  0
ARC
  5
DA2B
  8
0
  6
CONTINUOUS
 62
     3
 10
49.9999999999993179
 20
10.0436609429101509
 30
0.0
 40
1.000000000000675
210
0.0
220
-0.0000000000000002
230
-1.0
 50
355.0000000000039222
 51
0.0000000000005216
  0
LINE
  5
DA2C
  8
0
  6
CONTINUOUS
 62
     3
 10
-50.1251133647408409
 20
0.0000000000001843
 30
0.0
 11
-50.9961946980917418
 21
9.9565052001625087
 31
-0.0000000000000022
210
0.0000000000000002
220
1.0
230
-0.0000000000000002
  0
LINE
  5
DA2D
  8
0
  6
CONTINUOUS
 62
     3
 10
50.1251133647408622
 20
0.0000000000001567
 30
0.0
 11
50.9961946980917631
 21
9.9565052001624803
 31
-0.0000000000000022
210
0.0000000000000002
220
1.0
230
-0.0000000000000002
  0
LINE
  5
DA2E
  8
0
  6
CONTINUOUS
 62
     3
 10
-50.9999999999999929
 20
10.0436609429101598
 30
-0.0000000000000022
 11
-50.9999999999999574
 21
140.0000000000027001
 31
-0.0000000000000311
210
0.0000000000000002
220
1.0
230
-0.0000000000000002
  0
LINE
  5
DA2F
  8
0
  6
CONTINUOUS
 62
     3
 10
51.0000000000000071
 20
10.0436609429101402
 30
-0.0000000000000022
 11
51.0000000000000426
 21
140.0000000000027001
 31
-0.0000000000000311
210
0.0000000000000002
220
1.0
230
-0.0000000000000002
  0
LINE
  5
DA30
  8
0
  6
CONTINUOUS
 62
     3
 10
-102.000000000000199
 20
176.7499999999974989
 30
-0.0000000000000392
 11
-102.000000000000199
 21
234.9999999999972999
 31
-0.0000000000000522
210
0.0000000000000002
220
1.0
230
-0.0000000000000002
  0
LINE
  5
DA31
  8
0
  6
CONTINUOUS
 62
     3
 10
-102.000000000000199
 20
234.9999999999972999
 30
-0.0000000000000522
 11
-102.0000000000000995
 21
293.2499999999972147
 31
-0.0000000000000651
210
0.0000000000000002
220
1.0
230
-0.0000000000000002
  0
ARC
  5
DA32
  8
0
  6
CONTINUOUS
 62
     3
 10
107.5000000000000995
 20
181.1877245249552004
 30
0.0
 40
1.499999999999909
210
0.0
220
-0.0000000000000002
230
-1.0
 50
301.8542940793440721
 51
0.000000000003276
  0
ARC
  5
DA33
  8
0
  6
CONTINUOUS
 62
     3
 10
107.4999999999999005
 20
288.8122754750394279
 30
0.0
 40
1.500000000000014
210
0.0
220
-0.0000000000000002
230
-1.0
 50
0.0000000000000127
 51
58.1457059206544074
  0
LINE
  5
DA34
  8
0
  6
CONTINUOUS
 62
     3
 10
-109.0
 20
288.8122754750394279
 30
-0.0000000000000641
 11
-109.0
 21
181.1877245249552004
 31
-0.0000000000000402
210
0.0000000000000002
220
1.0
230
-0.0000000000000002
  0
LINE
  5
DA35
  8
0
  6
CONTINUOUS
 62
     3
 10
-108.2916413889677045
 20
290.0863649190243905
 30
-0.0000000000000644
 11
-104.1695644474550022
 21
292.6475718506237058
 31
-0.000000000000065
210
0.0000000000000002
220
1.0
230
-0.0000000000000002
  0
LINE
  5
DA36
  8
0
  6
CONTINUOUS
 62
     3
 10
-108.291641388967804
 20
179.9136350809702094
 30
-0.0000000000000399
 11
-104.1695644474550022
 21
177.3524281493710077
 31
-0.0000000000000394
210
0.0000000000000002
220
1.0
230
-0.0000000000000002
  0
ARC
  5
DA37
  8
0
  6
CONTINUOUS
 62
     3
 10
102.0585207435422035
 20
180.7499999999951115
 30
0.0
 40
3.9999999999978688
210
0.0
220
-0.0000000000000002
230
-1.0
 50
270.0
 51
301.8542940793698222
  0
ARC
  5
DA38
  8
0
  6
CONTINUOUS
 62
     3
 10
102.0585207435420045
 20
289.2499999999990905
 30
0.0
 40
3.9999999999982938
210
0.0
220
-0.0000000000000002
230
-1.0
 50
58.1457059206521478
 51
90.0000000000189431
  0
LINE
  5
DA39
  8
0
  6
CONTINUOUS
 62
     3
 10
-102.0585207435406971
 20
293.2499999999973284
 30
-0.0000000000000651
 11
-102.0000000000000995
 21
293.2499999999973284
 31
-0.0000000000000651
210
0.0000000000000002
220
1.0
230
-0.0000000000000002
  0
LINE
  5
DA3A
  8
0
  6
CONTINUOUS
 62
     3
 10
-102.0585207435407966
 20
176.7499999999972999
 30
-0.0000000000000392
 11
-102.000000000000199
 21
176.7499999999972999
 31
-0.0000000000000392
210
0.0000000000000002
220
1.0
230
-0.0000000000000002
  0
ARC
  5
DA3B
  8
0
  6
CONTINUOUS
 62
     3
 10
84.0000000000003837
 20
307.0096189432334768
 30
-0.0000000000000682
 40
3.9999999999999458
 50
349.2107316372325272
 51
10.7892683627642203
  0
LINE
  5
DA3C
  8
0
  6
CONTINUOUS
 62
     3
 10
-89.9999999999996732
 20
321.9999999999998863
 30
-0.0000000000000715
 11
90.0000000000003837
 21
321.9999999999998863
 31
-0.0000000000000715
210
0.0000000000000002
220
1.0
230
-0.0000000000000002
  0
LINE
  5
DA3D
  8
0
  6
CONTINUOUS
 62
     3
 10
90.0000000000003837
 20
319.9999999999998863
 30
-0.0000000000000711
 11
-89.9999999999996732
 21
319.9999999999998863
 31
-0.0000000000000711
210
0.0000000000000002
220
1.0
230
-0.0000000000000002
  0
LINE
  5
DA3E
  8
0
  6
CONTINUOUS
 62
     3
 10
-89.9999999999996732
 20
321.9999999999998863
 30
-0.0000000000000715
 11
-89.9999999999996732
 21
319.9999999999998863
 31
-0.0000000000000711
210
0.0000000000000002
220
1.0
230
-0.0000000000000002
  0
LINE
  5
DA3F
  8
0
  6
CONTINUOUS
 62
     3
 10
90.0000000000003837
 20
321.9999999999998863
 30
-0.0000000000000715
 11
90.0000000000003837
 21
319.9999999999998863
 31
-0.0000000000000711
210
0.0000000000000002
220
1.0
230
-0.0000000000000002
  0
LINE
  5
DA40
  8
0
  6
CONTINUOUS
 62
     3
 10
-88.0000000000061817
 20
319.9999999999997726
 30
-0.0000000000000711
 11
87.9292893218752312
 21
319.9999999999997726
 31
-0.0000000000000711
210
0.0000000000000002
220
1.0
230
-0.0000000000000002
  0
LINE
  5
DA41
  8
0
  6
CONTINUOUS
 62
     3
 10
-88.0000000000061107
 20
144.0000000000025011
 30
-0.000000000000032
 11
-88.0000000000060538
 21
319.9999999999997726
 31
-0.0000000000000711
210
0.0000000000000002
220
1.0
230
-0.0000000000000002
  0
LINE
  5
DA42
  8
0
  6
CONTINUOUS
 62
     3
 10
87.9292893218753449
 20
144.0000000000023874
 30
-0.000000000000032
 11
85.9999999999939178
 21
144.0000000000023874
 31
-0.000000000000032
210
0.0000000000000002
220
1.0
230
-0.0000000000000002
  0
LINE
  5
DA43
  8
0
  6
CONTINUOUS
 62
     3
 10
87.9292893218753449
 20
319.9999999999997726
 30
-0.0000000000000711
 11
87.9292893218752738
 21
144.0000000000023874
 31
-0.000000000000032
210
0.0000000000000002
220
1.0
230
-0.0000000000000002
  0
LINE
  5
DA44
  8
0
  6
CONTINUOUS
 62
     3
 10
89.9999999999938751
 20
144.0000000000023874
 30
-0.000000000000032
 11
89.999999999994273
 21
319.9999999999997726
 31
-0.0000000000000711
210
0.0000000000000002
220
1.0
230
-0.0000000000000002
  0
LINE
  5
DA45
  8
0
  6
CONTINUOUS
 62
     3
 10
87.9999999999938893
 20
144.0000000000023874
 30
-0.000000000000032
 11
87.9999999999942588
 21
319.9999999999997726
 31
-0.0000000000000711
210
0.0000000000000002
220
1.0
230
-0.0000000000000002
  0
LINE
  5
DA46
  8
0
  6
CONTINUOUS
 62
     3
 10
87.9999999999938893
 20
144.0000000000023874
 30
-0.000000000000032
 11
89.9999999999938751
 21
144.0000000000023874
 31
-0.000000000000032
210
0.0000000000000002
220
1.0
230
-0.0000000000000002
  0
LINE
  5
DA47
  8
0
  6
CONTINUOUS
 62
     3
 10
85.9999999999939178
 20
140.0000000000023874
 30
-0.0000000000000311
 11
-88.0000000000061249
 21
140.0000000000025011
 31
-0.0000000000000311
210
0.0000000000000002
220
1.0
230
-0.0000000000000002
  0
ARC
  5
DA48
  8
0
  6
CONTINUOUS
 62
     3
 10
85.9999999999938751
 20
144.0000000000023874
 30
-0.000000000000032
 40
3.9999999999999991
 50
270.0
 51
359.9999999999996021
  0
ARC
  5
DA49
  8
0
  6
CONTINUOUS
 62
     3
 10
85.9999999999938609
 20
144.0000000000023874
 30
-0.000000000000032
 40
2.0000000000000031
 50
270.0
 51
359.999999999998181
  0
LINE
  5
DA4A
  8
0
  6
CONTINUOUS
 62
     3
 10
-88.0000000000061107
 20
144.0000000000025011
 30
-0.000000000000032
 11
-88.0000000000061107
 21
140.0000000000025011
 31
-0.0000000000000311
210
0.0000000000000002
220
1.0
230
-0.0000000000000002
  0
LINE
  5
DA4B
  8
0
  6
CONTINUOUS
 62
     3
 10
85.9999999999939178
 20
140.0000000000023874
 30
-0.0000000000000311
 11
85.9999999999939178
 21
144.0000000000023874
 31
-0.000000000000032
210
0.0000000000000002
220
1.0
230
-0.0000000000000002
  0
LINE
  5
DA4C
  8
0
  6
CONTINUOUS
 62
     3
 10
-89.9999999999999147
 20
143.499999999999801
 30
-0.0000000000000319
 11
-89.9999999999998721
 21
141.999999999999801
 31
-0.0000000000000315
210
0.0000000000000002
220
1.0
230
-0.0000000000000002
  0
LINE
  5
DA4D
  8
0
  6
CONTINUOUS
 62
     3
 10
-87.9999999999999716
 20
141.999999999999801
 30
-0.0000000000000315
 11
-89.9999999999999432
 21
141.999999999999801
 31
-0.0000000000000315
210
0.0000000000000002
220
1.0
230
-0.0000000000000002
  0
LINE
  5
DA4E
  8
0
  6
CONTINUOUS
 62
     3
 10
-89.9999999999997442
 20
143.499999999999801
 30
-0.0000000000000319
 11
-89.9999999999996021
 21
319.9999999999997726
 31
-0.0000000000000711
210
0.0000000000000002
220
1.0
230
-0.0000000000000002
  0
LINE
  5
DA4F
  8
0
  6
CONTINUOUS
 62
     3
 10
-101.9999999999999005
 20
291.2328897227454263
 30
-0.0000000000000647
 11
-90.8694738077792152
 21
292.6982512954131153
 31
-0.000000000000065
210
0.0000000000000002
220
1.0
230
-0.0000000000000002
  0
LINE
  5
DA50
  8
0
  6
CONTINUOUS
 62
     3
 10
-101.9999999999999005
 20
178.7671102772497989
 30
-0.0000000000000397
 11
-90.8694738077792437
 21
177.3017487045819962
 31
-0.0000000000000394
210
0.0000000000000002
220
1.0
230
-0.0000000000000002
  0
ARC
  5
DA51
  8
0
  6
CONTINUOUS
 62
     3
 10
91.0011272078654656
 20
176.3093153084417111
 30
0.0
 40
1.001127695915333
210
0.0
220
-0.0000000000000002
230
-1.0
 50
97.5565750798062368
 51
179.943424920403686
  0
ARC
  5
DA52
  8
0
  6
CONTINUOUS
 62
     3
 10
91.0011272078653661
 20
293.6906846915532014
 30
0.0
 40
1.001127695915198
210
0.0
220
-0.0000000000000002
230
-1.0
 50
222.9105946081515981
 51
262.4434249201960938
  0
LINE
  5
DA53
  8
0
  6
CONTINUOUS
 62
     3
 10
-89.9999999999996163
 20
295.5999999999999091
 30
-0.0000000000000656
 11
-90.4598835418078266
 21
295.5999999999999091
 31
-0.0000000000000656
210
0.0000000000000002
220
1.0
230
-0.0000000000000002
  0
LINE
  5
DA54
  8
0
  6
CONTINUOUS
 62
     3
 10
-90.4598835418078551
 20
294.3999999999999204
 30
-0.0000000000000654
 11
-89.9999999999996163
 21
294.3999999999999204
 31
-0.0000000000000654
210
0.0000000000000002
220
1.0
230
-0.0000000000000002
  0
ARC
  5
DA55
  8
0
  6
CONTINUOUS
 62
     3
 10
80.9788498428903125
 20
295.0000000000001137
 30
0.0
 40
9.5000000000005418
210
0.0
220
-0.0000000000000002
230
-1.0
 50
341.7309138121229921
 51
356.3789090887964903
  0
ARC
  5
DA56
  8
0
  6
CONTINUOUS
 62
     3
 10
80.9788498428915631
 20
295.0000000000001137
 30
0.0
 40
9.4999999999992664
210
0.0
220
-0.0000000000000002
230
-1.0
 50
3.6210909112017169
 51
18.2690861878777184
  0
LINE
  5
DA57
  8
0
  6
CONTINUOUS
 62
     3
 10
-29.3999999999996504
 20
321.9999999999998863
 30
-0.0000000000000715
 11
-29.3999999999996504
 21
322.4598835418078124
 31
-0.0000000000000716
210
0.0000000000000002
220
1.0
230
-0.0000000000000002
  0
LINE
  5
DA58
  8
0
  6
CONTINUOUS
 62
     3
 10
-30.5999999999996497
 20
322.4598835418078124
 30
-0.0000000000000716
 11
-30.5999999999996497
 21
321.9999999999998863
 31
-0.0000000000000715
210
0.0000000000000002
220
1.0
230
-0.0000000000000002
  0
ARC
  5
DA59
  8
0
  6
CONTINUOUS
 62
     3
 10
29.9999999999994387
 20
312.9788498428900994
 30
0.0
 40
9.5000000000007141
210
0.0
220
-0.0000000000000002
230
-1.0
 50
71.7309138121289465
 51
86.378909088796064
  0
ARC
  5
DA5A
  8
0
  6
CONTINUOUS
 62
     3
 10
29.9999999999998614
 20
312.9788498428899857
 30
0.0
 40
9.5000000000007692
210
0.0
220
-0.0000000000000002
230
-1.0
 50
93.621090911203936
 51
108.2690861878709967
  0
LINE
  5
DA5B
  8
0
  6
VERDECKT
 62
     1
 10
48.1327239685571868
 20
0.1743114854954661
 30
0.0
 11
0.0000000000000071
 21
0.1743114854954797
 31
0.0
210
0.0000000000000002
220
1.0
230
-0.0000000000000002
  0
LINE
  5
DA5C
  8
0
  6
VERDECKT
 62
     1
 10
0.0000000000000021
 20
0.1743114854954797
 30
0.0
 11
-48.1327239685572223
 21
0.1743114854954933
 31
0.0
210
0.0000000000000002
220
1.0
230
-0.0000000000000002
  0
ARC
  5
DA5D
  8
0
  6
VERDECKT
 62
     1
 10
-47.9999999999993321
 20
10.1309828287244592
 30
0.0
 40
1.000000000000675
210
0.0
220
-0.0000000000000002
230
-1.0
 50
179.9999999999994884
 51
184.9999999999959925
  0
ARC
  5
DA5E
  8
0
  6
VERDECKT
 62
     1
 10
47.9999999999993179
 20
10.1309828287244894
 30
0.0
 40
1.000000000000675
210
0.0
220
-0.0000000000000002
230
-1.0
 50
355.0000000000039222
 51
0.0000000000005216
  0
LINE
  5
DA5F
  8
0
  6
VERDECKT
 62
     1
 10
-48.9999999999999929
 20
10.1309828287245001
 30
-0.0000000000000022
 11
-48.9999999999999503
 21
140.0000000000027001
 31
-0.0000000000000311
210
0.0000000000000002
220
1.0
230
-0.0000000000000002
  0
LINE
  5
DA60
  8
0
  6
VERDECKT
 62
     1
 10
49.0000000000000071
 20
10.1309828287244699
 30
-0.0000000000000022
 11
49.0000000000000426
 21
140.0000000000027001
 31
-0.0000000000000311
210
0.0000000000000002
220
1.0
230
-0.0000000000000002
  0
LINE
  5
DA61
  8
0
  6
VERDECKT
 62
     1
 10
-48.1327239685572223
 20
0.1743114854954931
 30
0.0
 11
-48.9961946980917418
 21
10.0438270859768402
 31
-0.0000000000000022
210
0.0000000000000002
220
1.0
230
-0.0000000000000002
  0
LINE
  5
DA62
  8
0
  6
VERDECKT
 62
     1
 10
48.1327239685572295
 20
0.1743114854954664
 30
0.0
 11
48.9961946980917489
 21
10.04382708597681
 31
-0.0000000000000022
210
0.0000000000000002
220
1.0
230
-0.0000000000000002
  0
LINE
  5
DA63
  8
0
  6
VERDECKT
 62
     1
 10
48.1327239685572295
 20
0.1743114854954661
 30
0.0
 11
50.1251133647408622
 21
0.0000000000001563
 31
0.0
210
0.0000000000000002
220
1.0
230
-0.0000000000000002
  0
LINE
  5
DA64
  8
0
  6
VERDECKT
 62
     1
 10
-48.1327239685572223
 20
0.1743114854954934
 30
0.0
 11
-50.1251133647408409
 21
0.0000000000001847
 31
0.0
210
0.0000000000000002
220
1.0
230
-0.0000000000000002
  0
LINE
  5
DA65
  8
0
  6
VERDECKT
 62
     1
 10
-101.439788022901098
 20
288.539385107548128
 30
-0.0000000000000641
 11
-101.439788022901098
 21
181.4606148924465003
 31
-0.0000000000000403
210
0.0000000000000002
220
1.0
230
-0.0000000000000002
  0
LINE
  5
DA66
  8
0
  6
VERDECKT
 62
     1
 10
-88.2681227262480235
 20
178.2999999999971124
 30
-0.0000000000000396
 11
-88.268122726247995
 21
291.6999999999977149
 31
-0.0000000000000648
210
0.0000000000000002
220
1.0
230
-0.0000000000000002
  0
LINE
  5
DA67
  8
0
  6
VERDECKT
 62
     1
 10
-81.709147409060904
 20
183.053381069946596
 30
-0.0000000000000406
 11
-81.709147409060904
 21
234.9999999999972999
 31
-0.0000000000000522
210
0.0000000000000002
220
1.0
230
-0.0000000000000002
  0
LINE
  5
DA68
  8
0
  6
VERDECKT
 62
     1
 10
-81.709147409060904
 20
234.9999999999972999
 30
-0.0000000000000522
 11
-81.709147409060904
 21
286.946618930047805
 31
-0.0000000000000637
210
0.0000000000000002
220
1.0
230
-0.0000000000000002
  0
LINE
  5
DA69
  8
0
  6
VERDECKT
 62
     1
 10
-102.0535898384868005
 20
184.1999999999970896
 30
-0.0000000000000409
 11
-102.0535898384868005
 21
234.9999999999972999
 31
-0.0000000000000522
210
0.0000000000000002
220
1.0
230
-0.0000000000000002
  0
LINE
  5
DA6A
  8
0
  6
VERDECKT
 62
     1
 10
-102.0535898384868005
 20
234.9999999999972999
 30
-0.0000000000000522
 11
-102.0535898384868005
 21
285.7999999999975103
 31
-0.0000000000000635
210
0.0000000000000002
220
1.0
230
-0.0000000000000002
  0
LINE
  5
DA6B
  8
0
  6
VERDECKT
 62
     1
 10
-83.9999999999999574
 20
178.299999999996686
 30
-0.0000000000000396
 11
-83.9999999999999432
 21
234.9999999999972999
 31
-0.0000000000000522
210
0.0000000000000002
220
1.0
230
-0.0000000000000002
  0
LINE
  5
DA6C
  8
0
  6
VERDECKT
 62
     1
 10
-83.9999999999999432
 20
234.9999999999972999
 30
-0.0000000000000522
 11
-83.9999999999999289
 21
291.6999999999974875
 31
-0.0000000000000648
210
0.0000000000000002
220
1.0
230
-0.0000000000000002
  0
LINE
  5
DA6D
  8
0
  6
VERDECKT
 62
     1
 10
-86.0000000000001847
 20
179.900415076416806
 30
-0.0000000000000399
 11
-86.0000000000001705
 21
234.9999999999972999
 31
-0.0000000000000522
210
0.0000000000000002
220
1.0
230
-0.0000000000000002
  0
LINE
  5
DA6E
  8
0
  6
VERDECKT
 62
     1
 10
-86.0000000000001705
 20
234.9999999999972999
 30
-0.0000000000000522
 11
-86.0000000000001563
 21
290.0995849235778223
 31
-0.0000000000000644
210
0.0000000000000002
220
1.0
230
-0.0000000000000002
  0
LINE
  5
DA6F
  8
0
  6
VERDECKT
 62
     1
 10
-101.439788022901098
 20
288.5393851075481848
 30
-0.0000000000000641
 11
-90.6084214233398342
 21
289.9653615726651879
 31
-0.0000000000000644
210
0.0000000000000002
220
1.0
230
-0.0000000000000002
  0
LINE
  5
DA70
  8
0
  6
VERDECKT
 62
     1
 10
-101.439788022901098
 20
181.460614892446614
 30
-0.0000000000000403
 11
-90.6084214233398768
 21
180.034638427329611
 31
-0.00000000000004
210
0.0000000000000002
220
1.0
230
-0.0000000000000002
  0
ARC
  5
DA71
  8
0
  6
VERDECKT
 62
     1
 10
91.0000000000001279
 20
292.9396961567863968
 30
0.0
 40
2.9999999999999272
210
0.0
220
-0.0000000000000002
230
-1.0
 50
204.4080296373599026
 51
262.499999999997101
  0
ARC
  5
DA72
  8
0
  6
VERDECKT
 62
     1
 10
91.000000000000199
 20
177.0603038432082883
 30
0.0
 40
3.0
210
0.0
220
-0.0000000000000002
230
-1.0
 50
97.5000000000034959
 51
155.5919703626366015
  0
LINE
  5
DA73
  8
0
  6
VERDECKT
 62
     1
 10
-102.0535898384868005
 20
285.7999999999975103
 30
-0.0000000000000635
 11
-81.709147409060904
 21
285.7999999999975103
 31
-0.0000000000000635
210
0.0000000000000002
220
1.0
230
-0.0000000000000002
  0
LINE
  5
DA74
  8
0
  6
VERDECKT
 62
     1
 10
-102.0535898384868005
 20
184.1999999999970896
 30
-0.0000000000000409
 11
-81.709147409060904
 21
184.1999999999970896
 31
-0.0000000000000409
210
0.0000000000000002
220
1.0
230
-0.0000000000000002
  0
LINE
  5
DA75
  8
0
  6
VERDECKT
 62
     1
 10
-102.0535898384869
 20
184.1999999999970896
 30
-0.0000000000000409
 11
-107.8882285676537975
 21
182.6366132643888989
 31
-0.0000000000000406
210
0.0000000000000002
220
1.0
230
-0.0000000000000002
  0
LINE
  5
DA76
  8
0
  6
VERDECKT
 62
     1
 10
-102.0535898384868005
 20
285.7999999999975103
 30
-0.0000000000000635
 11
-107.8882285676537975
 21
287.3633867356056726
 31
-0.0000000000000638
210
0.0000000000000002
220
1.0
230
-0.0000000000000002
  0
ARC
  5
DA77
  8
0
  6
VERDECKT
 62
     1
 10
107.4999999999999005
 20
181.1877245249552004
 30
0.0
 40
1.5000000000000431
210
0.0
220
-0.0000000000000002
230
-1.0
 50
0.0000000000000127
 51
74.9999999999976836
  0
ARC
  5
DA78
  8
0
  6
VERDECKT
 62
     1
 10
107.4999999999999005
 20
288.8122754750393142
 30
0.0
 40
1.500000000000002
210
0.0
220
-0.0000000000000002
230
-1.0
 50
285.000000000002899
 51
0.0000000000021819
  0
ARC
  5
DA79
  8
0
  6
VERDECKT
 62
     1
 10
89.8036890823840253
 20
201.2999999999379099
 30
0.0
 40
22.9999999999316316
210
0.0
220
-0.0000000000000002
230
-1.0
 50
300.3922667354323721
 51
302.0239959746244267
  0
ARC
  5
DA7A
  8
0
  6
VERDECKT
 62
     1
 10
89.8036890824476757
 20
268.7000000001611966
 30
0.0
 40
22.9999999998093507
210
0.0
220
-0.0000000000000002
230
-1.0
 50
57.9760040253721201
 51
59.6077332645727012
  0
LINE
  5
DA7B
  8
0
  6
VERDECKT
 62
     1
 10
-88.268122726247995
 20
291.6999999999976012
 30
-0.0000000000000648
 11
-83.9999999999999289
 21
291.6999999999976012
 31
-0.0000000000000648
210
0.0000000000000002
220
1.0
230
-0.0000000000000002
  0
LINE
  5
DA7C
  8
0
  6
VERDECKT
 62
     1
 10
-88.2681227262480235
 20
178.2999999999969987
 30
-0.0000000000000396
 11
-83.9999999999999574
 21
178.2999999999969987
 31
-0.0000000000000396
210
0.0000000000000002
220
1.0
230
-0.0000000000000002
  0
LINE
  5
DA7D
  8
0
  6
VERDECKT
 62
     1
 10
-86.0000000000001563
 20
290.0995849235778792
 30
-0.0000000000000644
 11
-84.0000000000001563
 21
290.5855373730984184
 31
-0.0000000000000645
210
0.0000000000000002
220
1.0
230
-0.0000000000000002
  0
LINE
  5
DA7E
  8
0
  6
VERDECKT
 62
     1
 10
-86.0000000000001847
 20
179.9004150764166923
 30
-0.0000000000000399
 11
-84.0000000000001847
 21
179.4144626268962099
 31
-0.0000000000000398
210
0.0000000000000002
220
1.0
230
-0.0000000000000002
  0
ARC
  5
DA7F
  8
0
  6
VERDECKT
 62
     1
 10
85.7159336463201242
 20
190.9635425853670938
 30
0.0
 40
8.867073426510462
210
0.0
220
-0.0000000000000002
230
-1.0
 50
243.136117676800211
 51
271.8358468095462968
  0
ARC
  5
DA80
  8
0
  6
VERDECKT
 62
     1
 10
85.7159336463200816
 20
279.0364574146278187
 30
0.0
 40
8.8670734265101192
210
0.0
220
-0.0000000000000002
230
-1.0
 50
88.164153190453348
 51
116.8638823232006985
  0
LINE
  5
DA81
  8
0
  6
VERDECKT
 62
     1
 10
79.3867513459484684
 20
318.9999999999998863
 30
-0.0000000000000708
 11
85.7320508075691663
 21
308.0096189432334199
 31
-0.0000000000000684
210
0.0000000000000002
220
1.0
230
-0.0000000000000002
  0
LINE
  5
DA82
  8
0
  6
VERDECKT
 62
     1
 10
81.1188021535175352
 20
319.9999999999998863
 30
-0.0000000000000711
 11
79.3867513459484684
 21
318.9999999999998863
 31
-0.0000000000000708
210
0.0000000000000002
220
1.0
230
-0.0000000000000002
  0
LINE
  5
DA83
  8
0
  6
VERDECKT
 62
     1
 10
87.4641016151380484
 20
309.0096189432334199
 30
-0.0000000000000686
 11
81.1188021535175352
 21
319.9999999999998863
 31
-0.0000000000000711
210
0.0000000000000002
220
1.0
230
-0.0000000000000002
  0
ARC
  5
DA84
  8
0
  6
VERDECKT
 62
     1
 10
84.0000000000007248
 20
307.0096189432331926
 30
-0.0000000000000682
 40
3.9999999999995688
 50
329.9999999999984084
 51
349.2107316372351988
  0
ARC
  5
DA85
  8
0
  6
VERDECKT
 62
     1
 10
84.000000000000739
 20
307.0096189432334768
 30
-0.0000000000000682
 40
3.999999999999563
 50
10.7892683627644193
 51
30.0000000000012186
  0
LINE
  5
DA86
  8
0
  6
VERDECKT
 62
     1
 10
83.6188021535170947
 20
298.3493649053887111
 30
-0.0000000000000662
 11
87.4641016151380484
 21
305.0096189432334199
 31
-0.0000000000000677
210
0.0000000000000002
220
1.0
230
-0.0000000000000002
  0
LINE
  5
DA87
  8
0
  6
VERDECKT
 62
     1
 10
81.8867513459484684
 20
299.3493649053887111
 30
-0.0000000000000665
 11
83.6188021535170947
 21
298.3493649053887111
 31
-0.0000000000000662
210
0.0000000000000002
220
1.0
230
-0.0000000000000002
  0
LINE
  5
DA88
  8
0
  6
VERDECKT
 62
     1
 10
85.7320508075691947
 20
306.0096189432333063
 30
-0.0000000000000679
 11
81.8867513459484684
 21
299.3493649053887111
 31
-0.0000000000000665
210
0.0000000000000002
220
1.0
230
-0.0000000000000002
  0
ARC
  5
DA89
  8
0
  6
VERDECKT
 62
     1
 10
-84.0000000000003268
 20
307.0096189432333063
 30
0.0
 40
1.999999999999996
210
0.0
220
-0.0000000000000002
230
-1.0
 50
149.9999999999980105
 51
210.0000000000001137
  0
LINE
  5
DA8A
  8
0
  6
VERDECKT
 62
     1
 10
-87.9999999999996589
 20
299.9999999999998863
 30
-0.0000000000000666
 11
-85.9999999999996732
 21
299.9999999999998863
 31
-0.0000000000000666
210
0.0000000000000002
220
1.0
230
-0.0000000000000002
  0
LINE
  5
DA8B
  8
0
  6
VERDECKT
 62
     1
 10
-85.9999999999996732
 20
299.9999999999998863
 30
-0.0000000000000666
 11
-85.9999999999996732
 21
319.9999999999998863
 31
-0.0000000000000711
210
0.0000000000000002
220
1.0
230
-0.0000000000000002
  0
LINE
  5
DA8C
  8
0
  6
VERDECKT
 62
     1
 10
-32.9999999999996518
 20
319.9999999999998863
 30
-0.0000000000000711
 11
-34.9999999999996376
 21
321.9999999999998863
 31
-0.0000000000000715
210
0.0000000000000002
220
1.0
230
-0.0000000000000002
  0
LINE
  5
DA8D
  8
0
  6
VERDECKT
 62
     1
 10
-26.9999999999996412
 20
319.9999999999998863
 30
-0.0000000000000711
 11
-24.9999999999996412
 21
321.9999999999998863
 31
-0.0000000000000715
210
0.0000000000000002
220
1.0
230
-0.0000000000000002
  0
LINE
  5
DA8E
  8
0
  6
VERDECKT
 62
     1
 10
-88.0000000000061249
 20
142.0000000000025011
 30
-0.0000000000000315
 11
85.9999999999939178
 21
142.0000000000023874
 31
-0.0000000000000315
210
0.0000000000000002
220
1.0
230
-0.0000000000000002
  0
LINE
  5
DA8F
  8
0
  6
VERDECKT
 62
     1
 10
-49.0000000000061391
 20
140.0000000000025011
 30
-0.0000000000000311
 11
-49.0000000000061391
 21
142.0000000000023874
 31
-0.0000000000000315
210
0.0000000000000002
220
1.0
230
-0.0000000000000002
  0
LINE
  5
DA90
  8
0
  6
VERDECKT
 62
     1
 10
48.999999999993868
 20
140.0000000000025011
 30
-0.0000000000000311
 11
48.999999999993868
 21
142.0000000000023874
 31
-0.0000000000000315
210
0.0000000000000002
220
1.0
230
-0.0000000000000002
  0
LINE
  5
DA91
  8
0
  6
VERDECKT
 62
     1
 10
-101.7389476155605053
 20
180.7499999999972999
 30
-0.0000000000000401
 11
-101.7389476155605053
 21
234.9999999999976126
 31
-0.0000000000000522
210
0.0000000000000002
220
1.0
230
-0.0000000000000002
  0
LINE
  5
DA92
  8
0
  6
VERDECKT
 62
     1
 10
-101.7389476155605053
 20
234.9999999999976126
 30
-0.0000000000000522
 11
-101.7389476155604058
 21
289.2499999999976126
 31
-0.0000000000000642
210
0.0000000000000002
220
1.0
230
-0.0000000000000002
  0
LINE
  5
DA93
  8
0
  6
VERDECKT
 62
     1
 10
-89.9999999999996874
 20
300.0
 30
-0.0000000000000666
 11
-87.9999999999999432
 21
300.0
 31
-0.0000000000000666
210
0.0000000000000002
220
1.0
230
-0.0000000000000002
  0
LINE
  5
DA94
  8
0
  6
VERDECKT
 62
     1
 10
-89.9999999999996874
 20
310.0
 30
-0.0000000000000688
 11
-87.9999999999999432
 21
310.0
 31
-0.0000000000000688
210
0.0000000000000002
220
1.0
230
-0.0000000000000002
  0
ARC
  5
DA95
  8
0
  6
VERDECKT
 62
     1
 10
91.0011272078653093
 20
293.6906846915533151
 30
0.0
 40
1.0011276959152191
210
0.0
220
-0.0000000000000002
230
-1.0
 50
180.0565750796075974
 51
222.9105946081585898
  0
ARC
  5
DA96
  8
0
  6
VERDECKT
 62
     1
 10
91.0033816737233252
 20
176.3073381949473912
 30
0.0
 40
3.0033831379174249
210
0.0
220
-0.0000000000000002
230
-1.0
 50
97.5565759174542535
 51
179.9434240825989946
  0
ARC
  5
DA97
  8
0
  6
VERDECKT
 62
     1
 10
91.0033816737234247
 20
293.6926618050478055
 30
0.0
 40
3.0033831379175391
210
0.0
220
-0.0000000000000002
230
-1.0
 50
180.0565759174068887
 51
262.4434240825435722
  0
LINE
  5
DA98
  8
0
  6
VERDECKT
 62
     1
 10
-101.7389476155603063
 20
289.2499999999976126
 30
-0.0000000000000642
 11
-90.6084214233396068
 21
290.7153615726654152
 31
-0.0000000000000646
210
0.0000000000000002
220
1.0
230
-0.0000000000000002
  0
LINE
  5
DA99
  8
0
  6
VERDECKT
 62
     1
 10
-101.7389476155603063
 20
180.7499999999974989
 30
-0.0000000000000401
 11
-90.608421423339621
 21
179.2846384273296962
 31
-0.0000000000000398
210
0.0000000000000002
220
1.0
230
-0.0000000000000002
  0
LINE
  5
DA9A
  8
0
  6
VERDECKT
 62
     1
 10
-101.7389476155603063
 20
180.7499999999974989
 30
-0.0000000000000401
 11
-102.0
 21
178.7671102772497136
 31
-0.0000000000000397
210
0.0000000000000002
220
1.0
230
-0.0000000000000002
  0
LINE
  5
DA9B
  8
0
  6
VERDECKT
 62
     1
 10
-101.7389476155603063
 20
289.2499999999976126
 30
-0.0000000000000642
 11
-101.9999999999999005
 21
291.2328897227454263
 31
-0.0000000000000647
210
0.0000000000000002
220
1.0
230
-0.0000000000000002
  0
LINE
  5
DA9C
  8
0
  6
VERDECKT
 62
     1
 10
-87.9999999999998863
 20
291.9999999999998863
 30
-0.0000000000000648
 11
-89.9999999999999147
 21
290.0000000000001137
 31
-0.0000000000000644
210
0.0000000000000002
220
1.0
230
-0.0000000000000002
  0
LINE
  5
DA9D
  8
0
  6
VERDECKT
 62
     1
 10
-87.9999999999998863
 20
298.0
 30
-0.0000000000000662
 11
-89.9999999999999147
 21
299.9999999999997726
 31
-0.0000000000000666
210
0.0000000000000002
220
1.0
230
-0.0000000000000002
  0
POLYLINE
  8
0
  5
DC85
  62
1
  66
     1
 10
0.000000
 20
0.000000
 30
0.000000
  70
     8
  0
VERTEX
  8
0
  5
DC86
 10
-89.1750
 20
295.600
 30
-6.56000e-14
  70
    32
  0
VERTEX
  8
0
  5
DC87
 10
-89.1718
 20
295.600
 30
-6.56000e-14
  70
    32
  0
VERTEX
  8
0
  5
DC88
 10
-89.1685
 20
295.600
 30
-6.56000e-14
  70
    32
  0
VERTEX
  8
0
  5
DC89
 10
-89.1653
 20
295.600
 30
-6.56000e-14
  70
    32
  0
VERTEX
  8
0
  5
DC8A
 10
-89.1621
 20
295.600
 30
-6.56000e-14
  70
    32
  0
VERTEX
  8
0
  5
DC8B
 10
-89.1589
 20
295.600
 30
-6.56000e-14
  70
    32
  0
VERTEX
  8
0
  5
DC8C
 10
-89.1556
 20
295.600
 30
-6.56000e-14
  70
    32
  0
VERTEX
  8
0
  5
DC8D
 10
-89.1524
 20
295.600
 30
-6.56000e-14
  70
    32
  0
VERTEX
  8
0
  5
DC8E
 10
-89.1492
 20
295.600
 30
-6.56000e-14
  70
    32
  0
VERTEX
  8
0
  5
DC8F
 10
-89.1460
 20
295.600
 30
-6.56000e-14
  70
    32
  0
VERTEX
  8
0
  5
DC90
 10
-89.1428
 20
295.600
 30
-6.56000e-14
  70
    32
  0
VERTEX
  8
0
  5
DC91
 10
-89.1396
 20
295.600
 30
-6.56000e-14
  70
    32
  0
VERTEX
  8
0
  5
DC92
 10
-89.1364
 20
295.600
 30
-6.56000e-14
  70
    32
  0
VERTEX
  8
0
  5
DC93
 10
-89.1331
 20
295.600
 30
-6.56000e-14
  70
    32
  0
VERTEX
  8
0
  5
DC94
 10
-89.1299
 20
295.600
 30
-6.56000e-14
  70
    32
  0
VERTEX
  8
0
  5
DC95
 10
-89.1267
 20
295.600
 30
-6.56000e-14
  70
    32
  0
VERTEX
  8
0
  5
DC96
 10
-89.1236
 20
295.600
 30
-6.56000e-14
  70
    32
  0
VERTEX
  8
0
  5
DC97
 10
-89.1204
 20
295.600
 30
-6.56000e-14
  70
    32
  0
VERTEX
  8
0
  5
DC98
 10
-89.1172
 20
295.600
 30
-6.56000e-14
  70
    32
  0
VERTEX
  8
0
  5
DC99
 10
-89.1140
 20
295.600
 30
-6.56000e-14
  70
    32
  0
VERTEX
  8
0
  5
DC9A
 10
-89.1108
 20
295.600
 30
-6.56000e-14
  70
    32
  0
VERTEX
  8
0
  5
DC9B
 10
-89.1076
 20
295.600
 30
-6.56000e-14
  70
    32
  0
VERTEX
  8
0
  5
DC9C
 10
-89.1044
 20
295.600
 30
-6.56000e-14
  70
    32
  0
VERTEX
  8
0
  5
DC9D
 10
-89.1013
 20
295.600
 30
-6.56000e-14
  70
    32
  0
VERTEX
  8
0
  5
DC9E
 10
-89.0981
 20
295.600
 30
-6.56000e-14
  70
    32
  0
VERTEX
  8
0
  5
DC9F
 10
-89.0949
 20
295.600
 30
-6.56000e-14
  70
    32
  0
VERTEX
  8
0
  5
DCA0
 10
-89.0917
 20
295.600
 30
-6.56000e-14
  70
    32
  0
VERTEX
  8
0
  5
DCA1
 10
-89.0886
 20
295.600
 30
-6.56000e-14
  70
    32
  0
VERTEX
  8
0
  5
DCA2
 10
-89.0854
 20
295.600
 30
-6.56000e-14
  70
    32
  0
VERTEX
  8
0
  5
DCA3
 10
-89.0822
 20
295.600
 30
-6.56000e-14
  70
    32
  0
VERTEX
  8
0
  5
DCA4
 10
-89.0791
 20
295.600
 30
-6.56000e-14
  70
    32
  0
VERTEX
  8
0
  5
DCA5
 10
-89.0759
 20
295.600
 30
-6.56000e-14
  70
    32
  0
VERTEX
  8
0
  5
DCA6
 10
-89.0728
 20
295.600
 30
-6.56000e-14
  70
    32
  0
VERTEX
  8
0
  5
DCA7
 10
-89.0696
 20
295.600
 30
-6.56000e-14
  70
    32
  0
VERTEX
  8
0
  5
DCA8
 10
-89.0665
 20
295.600
 30
-6.56000e-14
  70
    32
  0
VERTEX
  8
0
  5
DCA9
 10
-89.0633
 20
295.600
 30
-6.56000e-14
  70
    32
  0
VERTEX
  8
0
  5
DCAA
 10
-89.0602
 20
295.600
 30
-6.56000e-14
  70
    32
  0
VERTEX
  8
0
  5
DCAB
 10
-89.0570
 20
295.600
 30
-6.56000e-14
  70
    32
  0
VERTEX
  8
0
  5
DCAC
 10
-89.0539
 20
295.600
 30
-6.56000e-14
  70
    32
  0
VERTEX
  8
0
  5
DCAD
 10
-89.0507
 20
295.600
 30
-6.56000e-14
  70
    32
  0
VERTEX
  8
0
  5
DCAE
 10
-89.0476
 20
295.600
 30
-6.56000e-14
  70
    32
  0
VERTEX
  8
0
  5
DCAF
 10
-89.0445
 20
295.600
 30
-6.56000e-14
  70
    32
  0
VERTEX
  8
0
  5
DCB0
 10
-89.0413
 20
295.600
 30
-6.56000e-14
  70
    32
  0
VERTEX
  8
0
  5
DCB1
 10
-89.0382
 20
295.600
 30
-6.56000e-14
  70
    32
  0
VERTEX
  8
0
  5
DCB2
 10
-89.0351
 20
295.600
 30
-6.56000e-14
  70
    32
  0
VERTEX
  8
0
  5
DCB3
 10
-89.0320
 20
295.600
 30
-6.56000e-14
  70
    32
  0
VERTEX
  8
0
  5
DCB4
 10
-89.0288
 20
295.600
 30
-6.56000e-14
  70
    32
  0
VERTEX
  8
0
  5
DCB5
 10
-89.0257
 20
295.600
 30
-6.56000e-14
  70
    32
  0
VERTEX
  8
0
  5
DCB6
 10
-89.0226
 20
295.600
 30
-6.56000e-14
  70
    32
  0
VERTEX
  8
0
  5
DCB7
 10
-89.0195
 20
295.600
 30
-6.56000e-14
  70
    32
  0
VERTEX
  8
0
  5
DCB8
 10
-89.0164
 20
295.600
 30
-6.56000e-14
  70
    32
  0
VERTEX
  8
0
  5
DCB9
 10
-89.0133
 20
295.600
 30
-6.56000e-14
  70
    32
  0
VERTEX
  8
0
  5
DCBA
 10
-89.0102
 20
295.600
 30
-6.56000e-14
  70
    32
  0
VERTEX
  8
0
  5
DCBB
 10
-89.0071
 20
295.600
 30
-6.56000e-14
  70
    32
  0
VERTEX
  8
0
  5
DCBC
 10
-89.0040
 20
295.600
 30
-6.56000e-14
  70
    32
  0
VERTEX
  8
0
  5
DCBD
 10
-89.0009
 20
295.600
 30
-6.56000e-14
  70
    32
  0
VERTEX
  8
0
  5
DCBE
 10
-88.9978
 20
295.600
 30
-6.56000e-14
  70
    32
  0
VERTEX
  8
0
  5
DCBF
 10
-88.9947
 20
295.600
 30
-6.56000e-14
  70
    32
  0
VERTEX
  8
0
  5
DCC0
 10
-88.9916
 20
295.600
 30
-6.56000e-14
  70
    32
  0
VERTEX
  8
0
  5
DCC1
 10
-88.9885
 20
295.600
 30
-6.56000e-14
  70
    32
  0
VERTEX
  8
0
  5
DCC2
 10
-88.9854
 20
295.600
 30
-6.56000e-14
  70
    32
  0
VERTEX
  8
0
  5
DCC3
 10
-88.9823
 20
295.600
 30
-6.56000e-14
  70
    32
  0
VERTEX
  8
0
  5
DCC4
 10
-88.9792
 20
295.600
 30
-6.56000e-14
  70
    32
  0
VERTEX
  8
0
  5
DCC5
 10
-88.9761
 20
295.600
 30
-6.56000e-14
  70
    32
  0
VERTEX
  8
0
  5
DCC6
 10
-88.9731
 20
295.600
 30
-6.56000e-14
  70
    32
  0
VERTEX
  8
0
  5
DCC7
 10
-88.9700
 20
295.600
 30
-6.56000e-14
  70
    32
  0
VERTEX
  8
0
  5
DCC8
 10
-88.9669
 20
295.600
 30
-6.56000e-14
  70
    32
  0
VERTEX
  8
0
  5
DCC9
 10
-88.9639
 20
295.600
 30
-6.56000e-14
  70
    32
  0
VERTEX
  8
0
  5
DCCA
 10
-88.9608
 20
295.600
 30
-6.56000e-14
  70
    32
  0
VERTEX
  8
0
  5
DCCB
 10
-88.9577
 20
295.600
 30
-6.56000e-14
  70
    32
  0
VERTEX
  8
0
  5
DCCC
 10
-88.9547
 20
295.600
 30
-6.56000e-14
  70
    32
  0
VERTEX
  8
0
  5
DCCD
 10
-88.9516
 20
295.600
 30
-6.56000e-14
  70
    32
  0
VERTEX
  8
0
  5
DCCE
 10
-88.9485
 20
295.600
 30
-6.56000e-14
  70
    32
  0
VERTEX
  8
0
  5
DCCF
 10
-88.9455
 20
295.600
 30
-6.56000e-14
  70
    32
  0
VERTEX
  8
0
  5
DCD0
 10
-88.9424
 20
295.600
 30
-6.56000e-14
  70
    32
  0
VERTEX
  8
0
  5
DCD1
 10
-88.9394
 20
295.600
 30
-6.56000e-14
  70
    32
  0
VERTEX
  8
0
  5
DCD2
 10
-88.9363
 20
295.600
 30
-6.56000e-14
  70
    32
  0
VERTEX
  8
0
  5
DCD3
 10
-88.9333
 20
295.600
 30
-6.56000e-14
  70
    32
  0
VERTEX
  8
0
  5
DCD4
 10
-88.9302
 20
295.600
 30
-6.56000e-14
  70
    32
  0
VERTEX
  8
0
  5
DCD5
 10
-88.9272
 20
295.600
 30
-6.56000e-14
  70
    32
  0
VERTEX
  8
0
  5
DCD6
 10
-88.9242
 20
295.600
 30
-6.56000e-14
  70
    32
  0
VERTEX
  8
0
  5
DCD7
 10
-88.9211
 20
295.600
 30
-6.56000e-14
  70
    32
  0
VERTEX
  8
0
  5
DCD8
 10
-88.9181
 20
295.600
 30
-6.56000e-14
  70
    32
  0
VERTEX
  8
0
  5
DCD9
 10
-88.9151
 20
295.600
 30
-6.56000e-14
  70
    32
  0
VERTEX
  8
0
  5
DCDA
 10
-88.9120
 20
295.600
 30
-6.56000e-14
  70
    32
  0
VERTEX
  8
0
  5
DCDB
 10
-88.9090
 20
295.600
 30
-6.56000e-14
  70
    32
  0
VERTEX
  8
0
  5
DCDC
 10
-88.9060
 20
295.600
 30
-6.56000e-14
  70
    32
  0
VERTEX
  8
0
  5
DCDD
 10
-88.9029
 20
295.600
 30
-6.56000e-14
  70
    32
  0
VERTEX
  8
0
  5
DCDE
 10
-88.8999
 20
295.600
 30
-6.56000e-14
  70
    32
  0
VERTEX
  8
0
  5
DCDF
 10
-88.8969
 20
295.600
 30
-6.56000e-14
  70
    32
  0
VERTEX
  8
0
  5
DCE0
 10
-88.8939
 20
295.600
 30
-6.56000e-14
  70
    32
  0
VERTEX
  8
0
  5
DCE1
 10
-88.8909
 20
295.600
 30
-6.56000e-14
  70
    32
  0
VERTEX
  8
0
  5
DCE2
 10
-88.8879
 20
295.600
 30
-6.56000e-14
  70
    32
  0
VERTEX
  8
0
  5
DCE3
 10
-88.8849
 20
295.600
 30
-6.56000e-14
  70
    32
  0
VERTEX
  8
0
  5
DCE4
 10
-88.8819
 20
295.600
 30
-6.56000e-14
  70
    32
  0
VERTEX
  8
0
  5
DCE5
 10
-88.8788
 20
295.600
 30
-6.56000e-14
  70
    32
  0
SEQEND
  8
0
  5
DCE6
  0
LINE
  5
DA9F
  8
0
  6
VERDECKT
 62
     1
 10
-89.4999999999999147
 20
295.5999999999999091
 30
-0.0000000000000656
 11
-89.1749999999999119
 21
295.5999999999999091
 31
-0.0000000000000656
210
0.0000000000000002
220
1.0
230
-0.0000000000000002
  0
LINE
  5
DAA0
  8
0
  6
VERDECKT
 62
     1
 10
-89.4999999999999005
 20
295.5999999999999091
 30
-0.0000000000000656
 11
-89.9999999999996447
 21
295.5999999999999091
 31
-0.0000000000000656
210
0.0000000000000002
220
1.0
230
-0.0000000000000002
  0
LINE
  5
DAA1
  8
0
  6
VERDECKT
 62
     1
 10
-88.8788498428908298
 20
294.3999999999999204
 30
-0.0000000000000654
 11
-88.8788498428908298
 21
295.5999999999999091
 31
-0.0000000000000656
210
0.0000000000000002
220
1.0
230
-0.0000000000000002
  0
LINE
  5
DAA2
  8
0
  6
VERDECKT
 62
     1
 10
-89.9999999999996163
 20
294.3999999999999204
 30
-0.0000000000000654
 11
-89.4999999999999005
 21
294.3999999999999204
 31
-0.0000000000000654
210
0.0000000000000002
220
1.0
230
-0.0000000000000002
  0
LINE
  5
DAA3
  8
0
  6
VERDECKT
 62
     1
 10
-89.1749999999999119
 20
294.3999999999999204
 30
-0.0000000000000654
 11
-89.4999999999999147
 21
294.3999999999999204
 31
-0.0000000000000654
210
0.0000000000000002
220
1.0
230
-0.0000000000000002
  0
POLYLINE
  8
0
  5
DCE7
  62
1
  66
     1
 10
0.000000
 20
0.000000
 30
0.000000
  70
     8
  0
VERTEX
  8
0
  5
DCE8
 10
-88.8788
 20
294.400
 30
-6.54000e-14
  70
    32
  0
VERTEX
  8
0
  5
DCE9
 10
-88.8819
 20
294.400
 30
-6.54000e-14
  70
    32
  0
VERTEX
  8
0
  5
DCEA
 10
-88.8849
 20
294.400
 30
-6.54000e-14
  70
    32
  0
VERTEX
  8
0
  5
DCEB
 10
-88.8879
 20
294.400
 30
-6.54000e-14
  70
    32
  0
VERTEX
  8
0
  5
DCEC
 10
-88.8909
 20
294.400
 30
-6.54000e-14
  70
    32
  0
VERTEX
  8
0
  5
DCED
 10
-88.8939
 20
294.400
 30
-6.54000e-14
  70
    32
  0
VERTEX
  8
0
  5
DCEE
 10
-88.8969
 20
294.400
 30
-6.54000e-14
  70
    32
  0
VERTEX
  8
0
  5
DCEF
 10
-88.8999
 20
294.400
 30
-6.54000e-14
  70
    32
  0
VERTEX
  8
0
  5
DCF0
 10
-88.9029
 20
294.400
 30
-6.54000e-14
  70
    32
  0
VERTEX
  8
0
  5
DCF1
 10
-88.9060
 20
294.400
 30
-6.54000e-14
  70
    32
  0
VERTEX
  8
0
  5
DCF2
 10
-88.9090
 20
294.400
 30
-6.54000e-14
  70
    32
  0
VERTEX
  8
0
  5
DCF3
 10
-88.9120
 20
294.400
 30
-6.54000e-14
  70
    32
  0
VERTEX
  8
0
  5
DCF4
 10
-88.9151
 20
294.400
 30
-6.54000e-14
  70
    32
  0
VERTEX
  8
0
  5
DCF5
 10
-88.9181
 20
294.400
 30
-6.54000e-14
  70
    32
  0
VERTEX
  8
0
  5
DCF6
 10
-88.9211
 20
294.400
 30
-6.54000e-14
  70
    32
  0
VERTEX
  8
0
  5
DCF7
 10
-88.9242
 20
294.400
 30
-6.54000e-14
  70
    32
  0
VERTEX
  8
0
  5
DCF8
 10
-88.9272
 20
294.400
 30
-6.54000e-14
  70
    32
  0
VERTEX
  8
0
  5
DCF9
 10
-88.9302
 20
294.400
 30
-6.54000e-14
  70
    32
  0
VERTEX
  8
0
  5
DCFA
 10
-88.9333
 20
294.400
 30
-6.54000e-14
  70
    32
  0
VERTEX
  8
0
  5
DCFB
 10
-88.9363
 20
294.400
 30
-6.54000e-14
  70
    32
  0
VERTEX
  8
0
  5
DCFC
 10
-88.9394
 20
294.400
 30
-6.54000e-14
  70
    32
  0
VERTEX
  8
0
  5
DCFD
 10
-88.9424
 20
294.400
 30
-6.54000e-14
  70
    32
  0
VERTEX
  8
0
  5
DCFE
 10
-88.9455
 20
294.400
 30
-6.54000e-14
  70
    32
  0
VERTEX
  8
0
  5
DCFF
 10
-88.9485
 20
294.400
 30
-6.54000e-14
  70
    32
  0
VERTEX
  8
0
  5
DD00
 10
-88.9516
 20
294.400
 30
-6.54000e-14
  70
    32
  0
VERTEX
  8
0
  5
DD01
 10
-88.9547
 20
294.400
 30
-6.54000e-14
  70
    32
  0
VERTEX
  8
0
  5
DD02
 10
-88.9577
 20
294.400
 30
-6.54000e-14
  70
    32
  0
VERTEX
  8
0
  5
DD03
 10
-88.9608
 20
294.400
 30
-6.54000e-14
  70
    32
  0
VERTEX
  8
0
  5
DD04
 10
-88.9639
 20
294.400
 30
-6.54000e-14
  70
    32
  0
VERTEX
  8
0
  5
DD05
 10
-88.9669
 20
294.400
 30
-6.54000e-14
  70
    32
  0
VERTEX
  8
0
  5
DD06
 10
-88.9700
 20
294.400
 30
-6.54000e-14
  70
    32
  0
VERTEX
  8
0
  5
DD07
 10
-88.9731
 20
294.400
 30
-6.54000e-14
  70
    32
  0
VERTEX
  8
0
  5
DD08
 10
-88.9761
 20
294.400
 30
-6.54000e-14
  70
    32
  0
VERTEX
  8
0
  5
DD09
 10
-88.9792
 20
294.400
 30
-6.54000e-14
  70
    32
  0
VERTEX
  8
0
  5
DD0A
 10
-88.9823
 20
294.400
 30
-6.54000e-14
  70
    32
  0
VERTEX
  8
0
  5
DD0B
 10
-88.9854
 20
294.400
 30
-6.54000e-14
  70
    32
  0
VERTEX
  8
0
  5
DD0C
 10
-88.9885
 20
294.400
 30
-6.54000e-14
  70
    32
  0
VERTEX
  8
0
  5
DD0D
 10
-88.9916
 20
294.400
 30
-6.54000e-14
  70
    32
  0
VERTEX
  8
0
  5
DD0E
 10
-88.9947
 20
294.400
 30
-6.54000e-14
  70
    32
  0
VERTEX
  8
0
  5
DD0F
 10
-88.9978
 20
294.400
 30
-6.54000e-14
  70
    32
  0
VERTEX
  8
0
  5
DD10
 10
-89.0009
 20
294.400
 30
-6.54000e-14
  70
    32
  0
VERTEX
  8
0
  5
DD11
 10
-89.0040
 20
294.400
 30
-6.54000e-14
  70
    32
  0
VERTEX
  8
0
  5
DD12
 10
-89.0071
 20
294.400
 30
-6.54000e-14
  70
    32
  0
VERTEX
  8
0
  5
DD13
 10
-89.0102
 20
294.400
 30
-6.54000e-14
  70
    32
  0
VERTEX
  8
0
  5
DD14
 10
-89.0133
 20
294.400
 30
-6.54000e-14
  70
    32
  0
VERTEX
  8
0
  5
DD15
 10
-89.0164
 20
294.400
 30
-6.54000e-14
  70
    32
  0
VERTEX
  8
0
  5
DD16
 10
-89.0195
 20
294.400
 30
-6.54000e-14
  70
    32
  0
VERTEX
  8
0
  5
DD17
 10
-89.0226
 20
294.400
 30
-6.54000e-14
  70
    32
  0
VERTEX
  8
0
  5
DD18
 10
-89.0257
 20
294.400
 30
-6.54000e-14
  70
    32
  0
VERTEX
  8
0
  5
DD19
 10
-89.0288
 20
294.400
 30
-6.54000e-14
  70
    32
  0
VERTEX
  8
0
  5
DD1A
 10
-89.0320
 20
294.400
 30
-6.54000e-14
  70
    32
  0
VERTEX
  8
0
  5
DD1B
 10
-89.0351
 20
294.400
 30
-6.54000e-14
  70
    32
  0
VERTEX
  8
0
  5
DD1C
 10
-89.0382
 20
294.400
 30
-6.54000e-14
  70
    32
  0
VERTEX
  8
0
  5
DD1D
 10
-89.0413
 20
294.400
 30
-6.54000e-14
  70
    32
  0
VERTEX
  8
0
  5
DD1E
 10
-89.0445
 20
294.400
 30
-6.54000e-14
  70
    32
  0
VERTEX
  8
0
  5
DD1F
 10
-89.0476
 20
294.400
 30
-6.54000e-14
  70
    32
  0
VERTEX
  8
0
  5
DD20
 10
-89.0507
 20
294.400
 30
-6.54000e-14
  70
    32
  0
VERTEX
  8
0
  5
DD21
 10
-89.0539
 20
294.400
 30
-6.54000e-14
  70
    32
  0
VERTEX
  8
0
  5
DD22
 10
-89.0570
 20
294.400
 30
-6.54000e-14
  70
    32
  0
VERTEX
  8
0
  5
DD23
 10
-89.0602
 20
294.400
 30
-6.54000e-14
  70
    32
  0
VERTEX
  8
0
  5
DD24
 10
-89.0633
 20
294.400
 30
-6.54000e-14
  70
    32
  0
VERTEX
  8
0
  5
DD25
 10
-89.0665
 20
294.400
 30
-6.54000e-14
  70
    32
  0
VERTEX
  8
0
  5
DD26
 10
-89.0696
 20
294.400
 30
-6.54000e-14
  70
    32
  0
VERTEX
  8
0
  5
DD27
 10
-89.0728
 20
294.400
 30
-6.54000e-14
  70
    32
  0
VERTEX
  8
0
  5
DD28
 10
-89.0759
 20
294.400
 30
-6.54000e-14
  70
    32
  0
VERTEX
  8
0
  5
DD29
 10
-89.0791
 20
294.400
 30
-6.54000e-14
  70
    32
  0
VERTEX
  8
0
  5
DD2A
 10
-89.0822
 20
294.400
 30
-6.54000e-14
  70
    32
  0
VERTEX
  8
0
  5
DD2B
 10
-89.0854
 20
294.400
 30
-6.54000e-14
  70
    32
  0
VERTEX
  8
0
  5
DD2C
 10
-89.0886
 20
294.400
 30
-6.54000e-14
  70
    32
  0
VERTEX
  8
0
  5
DD2D
 10
-89.0917
 20
294.400
 30
-6.54000e-14
  70
    32
  0
VERTEX
  8
0
  5
DD2E
 10
-89.0949
 20
294.400
 30
-6.54000e-14
  70
    32
  0
VERTEX
  8
0
  5
DD2F
 10
-89.0981
 20
294.400
 30
-6.54000e-14
  70
    32
  0
VERTEX
  8
0
  5
DD30
 10
-89.1013
 20
294.400
 30
-6.54000e-14
  70
    32
  0
VERTEX
  8
0
  5
DD31
 10
-89.1044
 20
294.400
 30
-6.54000e-14
  70
    32
  0
VERTEX
  8
0
  5
DD32
 10
-89.1076
 20
294.400
 30
-6.54000e-14
  70
    32
  0
VERTEX
  8
0
  5
DD33
 10
-89.1108
 20
294.400
 30
-6.54000e-14
  70
    32
  0
VERTEX
  8
0
  5
DD34
 10
-89.1140
 20
294.400
 30
-6.54000e-14
  70
    32
  0
VERTEX
  8
0
  5
DD35
 10
-89.1172
 20
294.400
 30
-6.54000e-14
  70
    32
  0
VERTEX
  8
0
  5
DD36
 10
-89.1204
 20
294.400
 30
-6.54000e-14
  70
    32
  0
VERTEX
  8
0
  5
DD37
 10
-89.1236
 20
294.400
 30
-6.54000e-14
  70
    32
  0
VERTEX
  8
0
  5
DD38
 10
-89.1267
 20
294.400
 30
-6.54000e-14
  70
    32
  0
VERTEX
  8
0
  5
DD39
 10
-89.1299
 20
294.400
 30
-6.54000e-14
  70
    32
  0
VERTEX
  8
0
  5
DD3A
 10
-89.1331
 20
294.400
 30
-6.54000e-14
  70
    32
  0
VERTEX
  8
0
  5
DD3B
 10
-89.1364
 20
294.400
 30
-6.54000e-14
  70
    32
  0
VERTEX
  8
0
  5
DD3C
 10
-89.1396
 20
294.400
 30
-6.54000e-14
  70
    32
  0
VERTEX
  8
0
  5
DD3D
 10
-89.1428
 20
294.400
 30
-6.54000e-14
  70
    32
  0
VERTEX
  8
0
  5
DD3E
 10
-89.1460
 20
294.400
 30
-6.54000e-14
  70
    32
  0
VERTEX
  8
0
  5
DD3F
 10
-89.1492
 20
294.400
 30
-6.54000e-14
  70
    32
  0
VERTEX
  8
0
  5
DD40
 10
-89.1524
 20
294.400
 30
-6.54000e-14
  70
    32
  0
VERTEX
  8
0
  5
DD41
 10
-89.1556
 20
294.400
 30
-6.54000e-14
  70
    32
  0
VERTEX
  8
0
  5
DD42
 10
-89.1589
 20
294.400
 30
-6.54000e-14
  70
    32
  0
VERTEX
  8
0
  5
DD43
 10
-89.1621
 20
294.400
 30
-6.54000e-14
  70
    32
  0
VERTEX
  8
0
  5
DD44
 10
-89.1653
 20
294.400
 30
-6.54000e-14
  70
    32
  0
VERTEX
  8
0
  5
DD45
 10
-89.1685
 20
294.400
 30
-6.54000e-14
  70
    32
  0
VERTEX
  8
0
  5
DD46
 10
-89.1718
 20
294.400
 30
-6.54000e-14
  70
    32
  0
VERTEX
  8
0
  5
DD47
 10
-89.1750
 20
294.400
 30
-6.54000e-14
  70
    32
  0
SEQEND
  8
0
  5
DD48
  0
LINE
  5
DAA5
  8
0
  6
VERDECKT
 62
     1
 10
-89.4999999999999147
 20
295.5999999999999091
 30
-0.0000000000000656
 11
-89.4999999999999147
 21
299.1999999999998749
 31
-0.0000000000000664
210
0.0000000000000002
220
1.0
230
-0.0000000000000002
  0
LINE
  5
DAA6
  8
0
  6
VERDECKT
 62
     1
 10
-89.1749999999999119
 20
299.1999999999998749
 30
-0.0000000000000664
 11
-89.1749999999999119
 21
295.5999999999999091
 31
-0.0000000000000656
210
0.0000000000000002
220
1.0
230
-0.0000000000000002
  0
LINE
  5
DAA7
  8
0
  6
VERDECKT
 62
     1
 10
-89.1749999999999119
 20
294.3999999999999204
 30
-0.0000000000000654
 11
-89.1749999999999119
 21
290.7999999999998977
 31
-0.0000000000000646
210
0.0000000000000002
220
1.0
230
-0.0000000000000002
  0
LINE
  5
DAA8
  8
0
  6
VERDECKT
 62
     1
 10
-89.4999999999999147
 20
290.7999999999998977
 30
-0.0000000000000646
 11
-89.4999999999999147
 21
294.3999999999999773
 31
-0.0000000000000654
210
0.0000000000000002
220
1.0
230
-0.0000000000000002
  0
LINE
  5
DAA9
  8
0
  6
VERDECKT
 62
     1
 10
-85.3999999999999062
 20
296.9999999999998863
 30
-0.0000000000000659
 11
-85.3999999999999062
 21
292.9999999999998863
 31
-0.0000000000000651
210
0.0000000000000002
220
1.0
230
-0.0000000000000002
  0
LINE
  5
DAAA
  8
0
  6
VERDECKT
 62
     1
 10
-86.2749999999999062
 20
296.8249999999998749
 30
-0.0000000000000659
 11
-86.2749999999999062
 21
294.9999999999998863
 31
-0.0000000000000655
210
0.0000000000000002
220
1.0
230
-0.0000000000000002
  0
LINE
  5
DAAB
  8
0
  6
VERDECKT
 62
     1
 10
-86.2749999999999062
 20
294.9999999999998863
 30
-0.0000000000000655
 11
-86.2749999999999062
 21
293.1750000000000114
 31
-0.0000000000000651
210
0.0000000000000002
220
1.0
230
-0.0000000000000002
  0
LINE
  5
DAAC
  8
0
  6
VERDECKT
 62
     1
 10
-79.4999999999999147
 20
296.9999999999998863
 30
-0.0000000000000659
 11
-79.4999999999999147
 21
292.9999999999998863
 31
-0.0000000000000651
210
0.0000000000000002
220
1.0
230
-0.0000000000000002
  0
LINE
  5
DAAD
  8
0
  6
VERDECKT
 62
     1
 10
-89.1749999999999119
 20
299.1999999999998749
 30
-0.0000000000000664
 11
-89.4999999999999005
 21
299.1999999999998749
 31
-0.0000000000000664
210
0.0000000000000002
220
1.0
230
-0.0000000000000002
  0
LINE
  5
DAAE
  8
0
  6
VERDECKT
 62
     1
 10
-89.1749999999999119
 20
290.7999999999998977
 30
-0.0000000000000646
 11
-89.4999999999999005
 21
290.7999999999998977
 31
-0.0000000000000646
210
0.0000000000000002
220
1.0
230
-0.0000000000000002
  0
ARC
  5
DAAF
  8
0
  6
VERDECKT
 62
     1
 10
80.9788498428936663
 20
294.9999999999988063
 30
0.0
 40
9.4999999999969589
210
0.0
220
-0.0000000000000002
230
-1.0
 50
333.7617174556697819
 51
341.7309138121237879
  0
ARC
  5
DAB0
  8
0
  6
VERDECKT
 62
     1
 10
80.9788498428936663
 20
295.00000000000108
 30
0.0
 40
9.4999999999969642
210
0.0
220
-0.0000000000000002
230
-1.0
 50
18.2690861878761517
 51
26.2382825443302607
  0
LINE
  5
DAB1
  8
0
  6
VERDECKT
 62
     1
 10
-86.2749999999999062
 20
296.8249999999999886
 30
-0.0000000000000659
 11
-85.3999999999999062
 21
296.9999999999998863
 31
-0.0000000000000659
210
0.0000000000000002
220
1.0
230
-0.0000000000000002
  0
LINE
  5
DAB2
  8
0
  6
VERDECKT
 62
     1
 10
-86.2749999999999062
 20
293.1749999999998977
 30
-0.0000000000000651
 11
-85.3999999999999062
 21
292.9999999999998863
 31
-0.0000000000000651
210
0.0000000000000002
220
1.0
230
-0.0000000000000002
  0
LINE
  5
DAB3
  8
0
  6
VERDECKT
 62
     1
 10
-85.3999999999999062
 20
296.9999999999998863
 30
-0.0000000000000659
 11
-79.4999999999999289
 21
296.9999999999998863
 31
-0.0000000000000659
210
0.0000000000000002
220
1.0
230
-0.0000000000000002
  0
LINE
  5
DAB4
  8
0
  6
VERDECKT
 62
     1
 10
-85.3999999999999062
 20
292.9999999999998863
 30
-0.0000000000000651
 11
-79.4999999999999289
 21
292.9999999999998863
 31
-0.0000000000000651
210
0.0000000000000002
220
1.0
230
-0.0000000000000002
  0
ARC
  5
DAB5
  8
0
  6
VERDECKT
 62
     1
 10
86.3857864376269333
 20
292.1750000000001819
 30
0.0
 40
0.9999999999997168
210
0.0
220
-0.0000000000000002
230
-1.0
 50
44.9999999999936691
 51
90.000000000006537
  0
ARC
  5
DAB6
  8
0
  6
VERDECKT
 62
     1
 10
86.3857864376269333
 20
297.8249999999997044
 30
0.0
 40
0.9999999999997159
210
0.0
220
-0.0000000000000002
230
-1.0
 50
270.0
 51
315.0000000000129035
  0
LINE
  5
DAB7
  8
0
  6
VERDECKT
 62
     1
 10
-87.0928932188133444
 20
292.8821067811865078
 30
-0.000000000000065
 11
-89.1749999999999119
 21
290.7999999999998977
 31
-0.0000000000000646
210
0.0000000000000002
220
1.0
230
-0.0000000000000002
  0
LINE
  5
DAB8
  8
0
  6
VERDECKT
 62
     1
 10
-87.0928932188133444
 20
297.1178932188133786
 30
-0.000000000000066
 11
-89.1749999999999119
 21
299.1999999999998749
 31
-0.0000000000000664
210
0.0000000000000002
220
1.0
230
-0.0000000000000002
  0
LINE
  5
DAB9
  8
0
  6
VERDECKT
 62
     1
 10
-86.3857864376268054
 20
296.8249999999998749
 30
-0.0000000000000659
 11
-86.2749999999999062
 21
296.8249999999998749
 31
-0.0000000000000659
210
0.0000000000000002
220
1.0
230
-0.0000000000000002
  0
LINE
  5
DABA
  8
0
  6
VERDECKT
 62
     1
 10
-86.3857864376268054
 20
293.1750000000000114
 30
-0.0000000000000651
 11
-86.2749999999999062
 21
293.1750000000000114
 31
-0.0000000000000651
210
0.0000000000000002
220
1.0
230
-0.0000000000000002
  0
POLYLINE
  8
0
  5
DD49
  62
1
  66
     1
 10
0.000000
 20
0.000000
 30
0.000000
  70
     8
  0
VERTEX
  8
0
  5
DD4A
 10
-29.4000
 20
321.175
 30
-7.13000e-14
  70
    32
  0
VERTEX
  8
0
  5
DD4B
 10
-29.4000
 20
321.172
 30
-7.13000e-14
  70
    32
  0
VERTEX
  8
0
  5
DD4C
 10
-29.4000
 20
321.169
 30
-7.13000e-14
  70
    32
  0
VERTEX
  8
0
  5
DD4D
 10
-29.4000
 20
321.165
 30
-7.12999e-14
  70
    32
  0
VERTEX
  8
0
  5
DD4E
 10
-29.4000
 20
321.162
 30
-7.12998e-14
  70
    32
  0
VERTEX
  8
0
  5
DD4F
 10
-29.4000
 20
321.159
 30
-7.12997e-14
  70
    32
  0
VERTEX
  8
0
  5
DD50
 10
-29.4000
 20
321.156
 30
-7.12996e-14
  70
    32
  0
VERTEX
  8
0
  5
DD51
 10
-29.4000
 20
321.152
 30
-7.12995e-14
  70
    32
  0
VERTEX
  8
0
  5
DD52
 10
-29.4000
 20
321.149
 30
-7.12993e-14
  70
    32
  0
VERTEX
  8
0
  5
DD53
 10
-29.4000
 20
321.146
 30
-7.12991e-14
  70
    32
  0
VERTEX
  8
0
  5
DD54
 10
-29.4000
 20
321.143
 30
-7.12989e-14
  70
    32
  0
VERTEX
  8
0
  5
DD55
 10
-29.4000
 20
321.140
 30
-7.12987e-14
  70
    32
  0
VERTEX
  8
0
  5
DD56
 10
-29.4000
 20
321.136
 30
-7.12984e-14
  70
    32
  0
VERTEX
  8
0
  5
DD57
 10
-29.4000
 20
321.133
 30
-7.12981e-14
  70
    32
  0
VERTEX
  8
0
  5
DD58
 10
-29.4000
 20
321.130
 30
-7.12978e-14
  70
    32
  0
VERTEX
  8
0
  5
DD59
 10
-29.4000
 20
321.127
 30
-7.12975e-14
  70
    32
  0
VERTEX
  8
0
  5
DD5A
 10
-29.4000
 20
321.124
 30
-7.12972e-14
  70
    32
  0
VERTEX
  8
0
  5
DD5B
 10
-29.4000
 20
321.120
 30
-7.12968e-14
  70
    32
  0
VERTEX
  8
0
  5
DD5C
 10
-29.4000
 20
321.117
 30
-7.12964e-14
  70
    32
  0
VERTEX
  8
0
  5
DD5D
 10
-29.4000
 20
321.114
 30
-7.12960e-14
  70
    32
  0
VERTEX
  8
0
  5
DD5E
 10
-29.4000
 20
321.111
 30
-7.12956e-14
  70
    32
  0
VERTEX
  8
0
  5
DD5F
 10
-29.4000
 20
321.108
 30
-7.12951e-14
  70
    32
  0
VERTEX
  8
0
  5
DD60
 10
-29.4000
 20
321.104
 30
-7.12946e-14
  70
    32
  0
VERTEX
  8
0
  5
DD61
 10
-29.4000
 20
321.101
 30
-7.12941e-14
  70
    32
  0
VERTEX
  8
0
  5
DD62
 10
-29.4000
 20
321.098
 30
-7.12936e-14
  70
    32
  0
VERTEX
  8
0
  5
DD63
 10
-29.4000
 20
321.095
 30
-7.12931e-14
  70
    32
  0
VERTEX
  8
0
  5
DD64
 10
-29.4000
 20
321.092
 30
-7.12925e-14
  70
    32
  0
VERTEX
  8
0
  5
DD65
 10
-29.4000
 20
321.089
 30
-7.12919e-14
  70
    32
  0
VERTEX
  8
0
  5
DD66
 10
-29.4000
 20
321.085
 30
-7.12913e-14
  70
    32
  0
VERTEX
  8
0
  5
DD67
 10
-29.4000
 20
321.082
 30
-7.12907e-14
  70
    32
  0
VERTEX
  8
0
  5
DD68
 10
-29.4000
 20
321.079
 30
-7.12900e-14
  70
    32
  0
VERTEX
  8
0
  5
DD69
 10
-29.4000
 20
321.076
 30
-7.12894e-14
  70
    32
  0
VERTEX
  8
0
  5
DD6A
 10
-29.4000
 20
321.073
 30
-7.12887e-14
  70
    32
  0
VERTEX
  8
0
  5
DD6B
 10
-29.4000
 20
321.070
 30
-7.12879e-14
  70
    32
  0
VERTEX
  8
0
  5
DD6C
 10
-29.4000
 20
321.066
 30
-7.12872e-14
  70
    32
  0
VERTEX
  8
0
  5
DD6D
 10
-29.4000
 20
321.063
 30
-7.12864e-14
  70
    32
  0
VERTEX
  8
0
  5
DD6E
 10
-29.4000
 20
321.060
 30
-7.12856e-14
  70
    32
  0
VERTEX
  8
0
  5
DD6F
 10
-29.4000
 20
321.057
 30
-7.12848e-14
  70
    32
  0
VERTEX
  8
0
  5
DD70
 10
-29.4000
 20
321.054
 30
-7.12840e-14
  70
    32
  0
VERTEX
  8
0
  5
DD71
 10
-29.4000
 20
321.051
 30
-7.12832e-14
  70
    32
  0
VERTEX
  8
0
  5
DD72
 10
-29.4000
 20
321.048
 30
-7.12823e-14
  70
    32
  0
VERTEX
  8
0
  5
DD73
 10
-29.4000
 20
321.044
 30
-7.12814e-14
  70
    32
  0
VERTEX
  8
0
  5
DD74
 10
-29.4000
 20
321.041
 30
-7.12805e-14
  70
    32
  0
VERTEX
  8
0
  5
DD75
 10
-29.4000
 20
321.038
 30
-7.12795e-14
  70
    32
  0
VERTEX
  8
0
  5
DD76
 10
-29.4000
 20
321.035
 30
-7.12786e-14
  70
    32
  0
VERTEX
  8
0
  5
DD77
 10
-29.4000
 20
321.032
 30
-7.12776e-14
  70
    32
  0
VERTEX
  8
0
  5
DD78
 10
-29.4000
 20
321.029
 30
-7.12766e-14
  70
    32
  0
VERTEX
  8
0
  5
DD79
 10
-29.4000
 20
321.026
 30
-7.12755e-14
  70
    32
  0
VERTEX
  8
0
  5
DD7A
 10
-29.4000
 20
321.023
 30
-7.12745e-14
  70
    32
  0
VERTEX
  8
0
  5
DD7B
 10
-29.4000
 20
321.019
 30
-7.12734e-14
  70
    32
  0
VERTEX
  8
0
  5
DD7C
 10
-29.4000
 20
321.016
 30
-7.12723e-14
  70
    32
  0
VERTEX
  8
0
  5
DD7D
 10
-29.4000
 20
321.013
 30
-7.12712e-14
  70
    32
  0
VERTEX
  8
0
  5
DD7E
 10
-29.4000
 20
321.010
 30
-7.12700e-14
  70
    32
  0
VERTEX
  8
0
  5
DD7F
 10
-29.4000
 20
321.007
 30
-7.12689e-14
  70
    32
  0
VERTEX
  8
0
  5
DD80
 10
-29.4000
 20
321.004
 30
-7.12677e-14
  70
    32
  0
VERTEX
  8
0
  5
DD81
 10
-29.4000
 20
321.001
 30
-7.12665e-14
  70
    32
  0
VERTEX
  8
0
  5
DD82
 10
-29.4000
 20
320.998
 30
-7.12653e-14
  70
    32
  0
VERTEX
  8
0
  5
DD83
 10
-29.4000
 20
320.995
 30
-7.12640e-14
  70
    32
  0
VERTEX
  8
0
  5
DD84
 10
-29.4000
 20
320.992
 30
-7.12627e-14
  70
    32
  0
VERTEX
  8
0
  5
DD85
 10
-29.4000
 20
320.988
 30
-7.12614e-14
  70
    32
  0
VERTEX
  8
0
  5
DD86
 10
-29.4000
 20
320.985
 30
-7.12601e-14
  70
    32
  0
VERTEX
  8
0
  5
DD87
 10
-29.4000
 20
320.982
 30
-7.12588e-14
  70
    32
  0
VERTEX
  8
0
  5
DD88
 10
-29.4000
 20
320.979
 30
-7.12574e-14
  70
    32
  0
VERTEX
  8
0
  5
DD89
 10
-29.4000
 20
320.976
 30
-7.12560e-14
  70
    32
  0
VERTEX
  8
0
  5
DD8A
 10
-29.4000
 20
320.973
 30
-7.12546e-14
  70
    32
  0
VERTEX
  8
0
  5
DD8B
 10
-29.4000
 20
320.970
 30
-7.12532e-14
  70
    32
  0
VERTEX
  8
0
  5
DD8C
 10
-29.4000
 20
320.967
 30
-7.12517e-14
  70
    32
  0
VERTEX
  8
0
  5
DD8D
 10
-29.4000
 20
320.964
 30
-7.12503e-14
  70
    32
  0
VERTEX
  8
0
  5
DD8E
 10
-29.4000
 20
320.961
 30
-7.12488e-14
  70
    32
  0
VERTEX
  8
0
  5
DD8F
 10
-29.4000
 20
320.958
 30
-7.12473e-14
  70
    32
  0
VERTEX
  8
0
  5
DD90
 10
-29.4000
 20
320.955
 30
-7.12457e-14
  70
    32
  0
VERTEX
  8
0
  5
DD91
 10
-29.4000
 20
320.952
 30
-7.12442e-14
  70
    32
  0
VERTEX
  8
0
  5
DD92
 10
-29.4000
 20
320.949
 30
-7.12426e-14
  70
    32
  0
VERTEX
  8
0
  5
DD93
 10
-29.4000
 20
320.945
 30
-7.12410e-14
  70
    32
  0
VERTEX
  8
0
  5
DD94
 10
-29.4000
 20
320.942
 30
-7.12393e-14
  70
    32
  0
VERTEX
  8
0
  5
DD95
 10
-29.4000
 20
320.939
 30
-7.12377e-14
  70
    32
  0
VERTEX
  8
0
  5
DD96
 10
-29.4000
 20
320.936
 30
-7.12360e-14
  70
    32
  0
VERTEX
  8
0
  5
DD97
 10
-29.4000
 20
320.933
 30
-7.12343e-14
  70
    32
  0
VERTEX
  8
0
  5
DD98
 10
-29.4000
 20
320.930
 30
-7.12326e-14
  70
    32
  0
VERTEX
  8
0
  5
DD99
 10
-29.4000
 20
320.927
 30
-7.12309e-14
  70
    32
  0
VERTEX
  8
0
  5
DD9A
 10
-29.4000
 20
320.924
 30
-7.12291e-14
  70
    32
  0
VERTEX
  8
0
  5
DD9B
 10
-29.4000
 20
320.921
 30
-7.12273e-14
  70
    32
  0
VERTEX
  8
0
  5
DD9C
 10
-29.4000
 20
320.918
 30
-7.12255e-14
  70
    32
  0
VERTEX
  8
0
  5
DD9D
 10
-29.4000
 20
320.915
 30
-7.12237e-14
  70
    32
  0
VERTEX
  8
0
  5
DD9E
 10
-29.4000
 20
320.912
 30
-7.12218e-14
  70
    32
  0
VERTEX
  8
0
  5
DD9F
 10
-29.4000
 20
320.909
 30
-7.12200e-14
  70
    32
  0
VERTEX
  8
0
  5
DDA0
 10
-29.4000
 20
320.906
 30
-7.12181e-14
  70
    32
  0
VERTEX
  8
0
  5
DDA1
 10
-29.4000
 20
320.903
 30
-7.12161e-14
  70
    32
  0
VERTEX
  8
0
  5
DDA2
 10
-29.4000
 20
320.900
 30
-7.12142e-14
  70
    32
  0
VERTEX
  8
0
  5
DDA3
 10
-29.4000
 20
320.897
 30
-7.12122e-14
  70
    32
  0
VERTEX
  8
0
  5
DDA4
 10
-29.4000
 20
320.894
 30
-7.12103e-14
  70
    32
  0
VERTEX
  8
0
  5
DDA5
 10
-29.4000
 20
320.891
 30
-7.12082e-14
  70
    32
  0
VERTEX
  8
0
  5
DDA6
 10
-29.4000
 20
320.888
 30
-7.12062e-14
  70
    32
  0
VERTEX
  8
0
  5
DDA7
 10
-29.4000
 20
320.885
 30
-7.12042e-14
  70
    32
  0
VERTEX
  8
0
  5
DDA8
 10
-29.4000
 20
320.882
 30
-7.12021e-14
  70
    32
  0
VERTEX
  8
0
  5
DDA9
 10
-29.4000
 20
320.879
 30
-7.12000e-14
  70
    32
  0
SEQEND
  8
0
  5
DDAA
  0
LINE
  5
DABC
  8
0
  6
VERDECKT
 62
     1
 10
-29.3999999999996504
 20
321.4999999999998863
 30
-0.0000000000000714
 11
-29.3999999999996504
 21
321.1749999999998977
 31
-0.0000000000000713
210
0.0000000000000002
220
1.0
230
-0.0000000000000002
  0
LINE
  5
DABD
  8
0
  6
VERDECKT
 62
     1
 10
-29.3999999999996504
 20
321.4999999999998863
 30
-0.0000000000000714
 11
-29.3999999999996504
 21
321.9999999999998863
 31
-0.0000000000000715
210
0.0000000000000002
220
1.0
230
-0.0000000000000002
  0
LINE
  5
DABE
  8
0
  6
VERDECKT
 62
     1
 10
-30.5999999999996497
 20
320.8788498428908156
 30
-0.0000000000000712
 11
-29.3999999999996398
 21
320.8788498428908156
 31
-0.0000000000000712
210
0.0000000000000002
220
1.0
230
-0.0000000000000002
  0
LINE
  5
DABF
  8
0
  6
VERDECKT
 62
     1
 10
-30.5999999999996497
 20
321.9999999999998863
 30
-0.0000000000000715
 11
-30.5999999999996497
 21
321.4999999999998863
 31
-0.0000000000000714
210
0.0000000000000002
220
1.0
230
-0.0000000000000002
  0
LINE
  5
DAC0
  8
0
  6
VERDECKT
 62
     1
 10
-30.5999999999996497
 20
321.1749999999998977
 30
-0.0000000000000713
 11
-30.5999999999996497
 21
321.4999999999998863
 31
-0.0000000000000714
210
0.0000000000000002
220
1.0
230
-0.0000000000000002
  0
POLYLINE
  8
0
  5
DDAB
  62
1
  66
     1
 10
0.000000
 20
0.000000
 30
0.000000
  70
     8
  0
VERTEX
  8
0
  5
DDAC
 10
-30.6000
 20
320.879
 30
-7.12000e-14
  70
    32
  0
VERTEX
  8
0
  5
DDAD
 10
-30.6000
 20
320.882
 30
-7.12021e-14
  70
    32
  0
VERTEX
  8
0
  5
DDAE
 10
-30.6000
 20
320.885
 30
-7.12042e-14
  70
    32
  0
VERTEX
  8
0
  5
DDAF
 10
-30.6000
 20
320.888
 30
-7.12062e-14
  70
    32
  0
VERTEX
  8
0
  5
DDB0
 10
-30.6000
 20
320.891
 30
-7.12082e-14
  70
    32
  0
VERTEX
  8
0
  5
DDB1
 10
-30.6000
 20
320.894
 30
-7.12103e-14
  70
    32
  0
VERTEX
  8
0
  5
DDB2
 10
-30.6000
 20
320.897
 30
-7.12122e-14
  70
    32
  0
VERTEX
  8
0
  5
DDB3
 10
-30.6000
 20
320.900
 30
-7.12142e-14
  70
    32
  0
VERTEX
  8
0
  5
DDB4
 10
-30.6000
 20
320.903
 30
-7.12161e-14
  70
    32
  0
VERTEX
  8
0
  5
DDB5
 10
-30.6000
 20
320.906
 30
-7.12181e-14
  70
    32
  0
VERTEX
  8
0
  5
DDB6
 10
-30.6000
 20
320.909
 30
-7.12200e-14
  70
    32
  0
VERTEX
  8
0
  5
DDB7
 10
-30.6000
 20
320.912
 30
-7.12218e-14
  70
    32
  0
VERTEX
  8
0
  5
DDB8
 10
-30.6000
 20
320.915
 30
-7.12237e-14
  70
    32
  0
VERTEX
  8
0
  5
DDB9
 10
-30.6000
 20
320.918
 30
-7.12255e-14
  70
    32
  0
VERTEX
  8
0
  5
DDBA
 10
-30.6000
 20
320.921
 30
-7.12273e-14
  70
    32
  0
VERTEX
  8
0
  5
DDBB
 10
-30.6000
 20
320.924
 30
-7.12291e-14
  70
    32
  0
VERTEX
  8
0
  5
DDBC
 10
-30.6000
 20
320.927
 30
-7.12309e-14
  70
    32
  0
VERTEX
  8
0
  5
DDBD
 10
-30.6000
 20
320.930
 30
-7.12326e-14
  70
    32
  0
VERTEX
  8
0
  5
DDBE
 10
-30.6000
 20
320.933
 30
-7.12343e-14
  70
    32
  0
VERTEX
  8
0
  5
DDBF
 10
-30.6000
 20
320.936
 30
-7.12360e-14
  70
    32
  0
VERTEX
  8
0
  5
DDC0
 10
-30.6000
 20
320.939
 30
-7.12377e-14
  70
    32
  0
VERTEX
  8
0
  5
DDC1
 10
-30.6000
 20
320.942
 30
-7.12393e-14
  70
    32
  0
VERTEX
  8
0
  5
DDC2
 10
-30.6000
 20
320.945
 30
-7.12410e-14
  70
    32
  0
VERTEX
  8
0
  5
DDC3
 10
-30.6000
 20
320.949
 30
-7.12426e-14
  70
    32
  0
VERTEX
  8
0
  5
DDC4
 10
-30.6000
 20
320.952
 30
-7.12442e-14
  70
    32
  0
VERTEX
  8
0
  5
DDC5
 10
-30.6000
 20
320.955
 30
-7.12457e-14
  70
    32
  0
VERTEX
  8
0
  5
DDC6
 10
-30.6000
 20
320.958
 30
-7.12473e-14
  70
    32
  0
VERTEX
  8
0
  5
DDC7
 10
-30.6000
 20
320.961
 30
-7.12488e-14
  70
    32
  0
VERTEX
  8
0
  5
DDC8
 10
-30.6000
 20
320.964
 30
-7.12503e-14
  70
    32
  0
VERTEX
  8
0
  5
DDC9
 10
-30.6000
 20
320.967
 30
-7.12517e-14
  70
    32
  0
VERTEX
  8
0
  5
DDCA
 10
-30.6000
 20
320.970
 30
-7.12532e-14
  70
    32
  0
VERTEX
  8
0
  5
DDCB
 10
-30.6000
 20
320.973
 30
-7.12546e-14
  70
    32
  0
VERTEX
  8
0
  5
DDCC
 10
-30.6000
 20
320.976
 30
-7.12560e-14
  70
    32
  0
VERTEX
  8
0
  5
DDCD
 10
-30.6000
 20
320.979
 30
-7.12574e-14
  70
    32
  0
VERTEX
  8
0
  5
DDCE
 10
-30.6000
 20
320.982
 30
-7.12588e-14
  70
    32
  0
VERTEX
  8
0
  5
DDCF
 10
-30.6000
 20
320.985
 30
-7.12601e-14
  70
    32
  0
VERTEX
  8
0
  5
DDD0
 10
-30.6000
 20
320.988
 30
-7.12614e-14
  70
    32
  0
VERTEX
  8
0
  5
DDD1
 10
-30.6000
 20
320.992
 30
-7.12627e-14
  70
    32
  0
VERTEX
  8
0
  5
DDD2
 10
-30.6000
 20
320.995
 30
-7.12640e-14
  70
    32
  0
VERTEX
  8
0
  5
DDD3
 10
-30.6000
 20
320.998
 30
-7.12653e-14
  70
    32
  0
VERTEX
  8
0
  5
DDD4
 10
-30.6000
 20
321.001
 30
-7.12665e-14
  70
    32
  0
VERTEX
  8
0
  5
DDD5
 10
-30.6000
 20
321.004
 30
-7.12677e-14
  70
    32
  0
VERTEX
  8
0
  5
DDD6
 10
-30.6000
 20
321.007
 30
-7.12689e-14
  70
    32
  0
VERTEX
  8
0
  5
DDD7
 10
-30.6000
 20
321.010
 30
-7.12700e-14
  70
    32
  0
VERTEX
  8
0
  5
DDD8
 10
-30.6000
 20
321.013
 30
-7.12712e-14
  70
    32
  0
VERTEX
  8
0
  5
DDD9
 10
-30.6000
 20
321.016
 30
-7.12723e-14
  70
    32
  0
VERTEX
  8
0
  5
DDDA
 10
-30.6000
 20
321.019
 30
-7.12734e-14
  70
    32
  0
VERTEX
  8
0
  5
DDDB
 10
-30.6000
 20
321.023
 30
-7.12745e-14
  70
    32
  0
VERTEX
  8
0
  5
DDDC
 10
-30.6000
 20
321.026
 30
-7.12755e-14
  70
    32
  0
VERTEX
  8
0
  5
DDDD
 10
-30.6000
 20
321.029
 30
-7.12766e-14
  70
    32
  0
VERTEX
  8
0
  5
DDDE
 10
-30.6000
 20
321.032
 30
-7.12776e-14
  70
    32
  0
VERTEX
  8
0
  5
DDDF
 10
-30.6000
 20
321.035
 30
-7.12786e-14
  70
    32
  0
VERTEX
  8
0
  5
DDE0
 10
-30.6000
 20
321.038
 30
-7.12795e-14
  70
    32
  0
VERTEX
  8
0
  5
DDE1
 10
-30.6000
 20
321.041
 30
-7.12805e-14
  70
    32
  0
VERTEX
  8
0
  5
DDE2
 10
-30.6000
 20
321.044
 30
-7.12814e-14
  70
    32
  0
VERTEX
  8
0
  5
DDE3
 10
-30.6000
 20
321.048
 30
-7.12823e-14
  70
    32
  0
VERTEX
  8
0
  5
DDE4
 10
-30.6000
 20
321.051
 30
-7.12832e-14
  70
    32
  0
VERTEX
  8
0
  5
DDE5
 10
-30.6000
 20
321.054
 30
-7.12840e-14
  70
    32
  0
VERTEX
  8
0
  5
DDE6
 10
-30.6000
 20
321.057
 30
-7.12848e-14
  70
    32
  0
VERTEX
  8
0
  5
DDE7
 10
-30.6000
 20
321.060
 30
-7.12856e-14
  70
    32
  0
VERTEX
  8
0
  5
DDE8
 10
-30.6000
 20
321.063
 30
-7.12864e-14
  70
    32
  0
VERTEX
  8
0
  5
DDE9
 10
-30.6000
 20
321.066
 30
-7.12872e-14
  70
    32
  0
VERTEX
  8
0
  5
DDEA
 10
-30.6000
 20
321.070
 30
-7.12879e-14
  70
    32
  0
VERTEX
  8
0
  5
DDEB
 10
-30.6000
 20
321.073
 30
-7.12887e-14
  70
    32
  0
VERTEX
  8
0
  5
DDEC
 10
-30.6000
 20
321.076
 30
-7.12894e-14
  70
    32
  0
VERTEX
  8
0
  5
DDED
 10
-30.6000
 20
321.079
 30
-7.12900e-14
  70
    32
  0
VERTEX
  8
0
  5
DDEE
 10
-30.6000
 20
321.082
 30
-7.12907e-14
  70
    32
  0
VERTEX
  8
0
  5
DDEF
 10
-30.6000
 20
321.085
 30
-7.12913e-14
  70
    32
  0
VERTEX
  8
0
  5
DDF0
 10
-30.6000
 20
321.089
 30
-7.12919e-14
  70
    32
  0
VERTEX
  8
0
  5
DDF1
 10
-30.6000
 20
321.092
 30
-7.12925e-14
  70
    32
  0
VERTEX
  8
0
  5
DDF2
 10
-30.6000
 20
321.095
 30
-7.12931e-14
  70
    32
  0
VERTEX
  8
0
  5
DDF3
 10
-30.6000
 20
321.098
 30
-7.12936e-14
  70
    32
  0
VERTEX
  8
0
  5
DDF4
 10
-30.6000
 20
321.101
 30
-7.12941e-14
  70
    32
  0
VERTEX
  8
0
  5
DDF5
 10
-30.6000
 20
321.104
 30
-7.12946e-14
  70
    32
  0
VERTEX
  8
0
  5
DDF6
 10
-30.6000
 20
321.108
 30
-7.12951e-14
  70
    32
  0
VERTEX
  8
0
  5
DDF7
 10
-30.6000
 20
321.111
 30
-7.12956e-14
  70
    32
  0
VERTEX
  8
0
  5
DDF8
 10
-30.6000
 20
321.114
 30
-7.12960e-14
  70
    32
  0
VERTEX
  8
0
  5
DDF9
 10
-30.6000
 20
321.117
 30
-7.12964e-14
  70
    32
  0
VERTEX
  8
0
  5
DDFA
 10
-30.6000
 20
321.120
 30
-7.12968e-14
  70
    32
  0
VERTEX
  8
0
  5
DDFB
 10
-30.6000
 20
321.124
 30
-7.12972e-14
  70
    32
  0
VERTEX
  8
0
  5
DDFC
 10
-30.6000
 20
321.127
 30
-7.12975e-14
  70
    32
  0
VERTEX
  8
0
  5
DDFD
 10
-30.6000
 20
321.130
 30
-7.12978e-14
  70
    32
  0
VERTEX
  8
0
  5
DDFE
 10
-30.6000
 20
321.133
 30
-7.12981e-14
  70
    32
  0
VERTEX
  8
0
  5
DDFF
 10
-30.6000
 20
321.136
 30
-7.12984e-14
  70
    32
  0
VERTEX
  8
0
  5
DE00
 10
-30.6000
 20
321.140
 30
-7.12987e-14
  70
    32
  0
VERTEX
  8
0
  5
DE01
 10
-30.6000
 20
321.143
 30
-7.12989e-14
  70
    32
  0
VERTEX
  8
0
  5
DE02
 10
-30.6000
 20
321.146
 30
-7.12991e-14
  70
    32
  0
VERTEX
  8
0
  5
DE03
 10
-30.6000
 20
321.149
 30
-7.12993e-14
  70
    32
  0
VERTEX
  8
0
  5
DE04
 10
-30.6000
 20
321.152
 30
-7.12995e-14
  70
    32
  0
VERTEX
  8
0
  5
DE05
 10
-30.6000
 20
321.156
 30
-7.12996e-14
  70
    32
  0
VERTEX
  8
0
  5
DE06
 10
-30.6000
 20
321.159
 30
-7.12997e-14
  70
    32
  0
VERTEX
  8
0
  5
DE07
 10
-30.6000
 20
321.162
 30
-7.12998e-14
  70
    32
  0
VERTEX
  8
0
  5
DE08
 10
-30.6000
 20
321.165
 30
-7.12999e-14
  70
    32
  0
VERTEX
  8
0
  5
DE09
 10
-30.6000
 20
321.169
 30
-7.13000e-14
  70
    32
  0
VERTEX
  8
0
  5
DE0A
 10
-30.6000
 20
321.172
 30
-7.13000e-14
  70
    32
  0
VERTEX
  8
0
  5
DE0B
 10
-30.6000
 20
321.175
 30
-7.13000e-14
  70
    32
  0
SEQEND
  8
0
  5
DE0C
  0
LINE
  5
DAC2
  8
0
  6
VERDECKT
 62
     1
 10
-29.3999999999996504
 20
321.4999999999998863
 30
-0.0000000000000714
 11
-25.7999999999996597
 21
321.4999999999998863
 31
-0.0000000000000714
210
0.0000000000000002
220
1.0
230
-0.0000000000000002
  0
LINE
  5
DAC3
  8
0
  6
VERDECKT
 62
     1
 10
-25.7999999999996597
 20
321.1749999999998977
 30
-0.0000000000000713
 11
-29.3999999999996504
 21
321.1749999999998977
 31
-0.0000000000000713
210
0.0000000000000002
220
1.0
230
-0.0000000000000002
  0
LINE
  5
DAC4
  8
0
  6
VERDECKT
 62
     1
 10
-30.5999999999996497
 20
321.1749999999998977
 30
-0.0000000000000713
 11
-34.1999999999996618
 21
321.1749999999998977
 31
-0.0000000000000713
210
0.0000000000000002
220
1.0
230
-0.0000000000000002
  0
LINE
  5
DAC5
  8
0
  6
VERDECKT
 62
     1
 10
-34.1999999999996618
 20
321.4999999999998863
 30
-0.0000000000000714
 11
-30.5999999999996497
 21
321.4999999999998863
 31
-0.0000000000000714
210
0.0000000000000002
220
1.0
230
-0.0000000000000002
  0
LINE
  5
DAC6
  8
0
  6
VERDECKT
 62
     1
 10
-27.9999999999996483
 20
317.3999999999999204
 30
-0.0000000000000705
 11
-31.9999999999996483
 21
317.3999999999999204
 31
-0.0000000000000705
210
0.0000000000000002
220
1.0
230
-0.0000000000000002
  0
LINE
  5
DAC7
  8
0
  6
VERDECKT
 62
     1
 10
-28.174999999999649
 20
318.2749999999999204
 30
-0.0000000000000707
 11
-29.9999999999996483
 21
318.2749999999999204
 31
-0.0000000000000707
210
0.0000000000000002
220
1.0
230
-0.0000000000000002
  0
LINE
  5
DAC8
  8
0
  6
VERDECKT
 62
     1
 10
-29.9999999999996412
 20
318.2749999999999204
 30
-0.0000000000000707
 11
-31.8249999999996511
 21
318.2749999999999204
 31
-0.0000000000000707
210
0.0000000000000002
220
1.0
230
-0.0000000000000002
  0
LINE
  5
DAC9
  8
0
  6
VERDECKT
 62
     1
 10
-27.9999999999996483
 20
311.4999999999998863
 30
-0.0000000000000692
 11
-31.9999999999996483
 21
311.4999999999998863
 31
-0.0000000000000692
210
0.0000000000000002
220
1.0
230
-0.0000000000000002
  0
LINE
  5
DACA
  8
0
  6
VERDECKT
 62
     1
 10
-25.7999999999996597
 20
321.1749999999998977
 30
-0.0000000000000713
 11
-25.7999999999996597
 21
321.4999999999998863
 31
-0.0000000000000714
210
0.0000000000000002
220
1.0
230
-0.0000000000000002
  0
LINE
  5
DACB
  8
0
  6
VERDECKT
 62
     1
 10
-34.1999999999996618
 20
321.1749999999998977
 30
-0.0000000000000713
 11
-34.1999999999996618
 21
321.4999999999998863
 31
-0.0000000000000714
210
0.0000000000000002
220
1.0
230
-0.0000000000000002
  0
ARC
  5
DACC
  8
0
  6
VERDECKT
 62
     1
 10
30.0000000000024194
 20
312.9788498428978869
 30
0.0
 40
9.4999999999923297
210
0.0
220
-0.0000000000000002
230
-1.0
 50
63.7617174556669113
 51
71.7309138121311634
  0
ARC
  5
DACD
  8
0
  6
VERDECKT
 62
     1
 10
30.0000000000002487
 20
312.9788498428890193
 30
0.0
 40
9.5000000000018652
210
0.0
220
-0.0000000000000002
230
-1.0
 50
108.2690861878712951
 51
116.2382825443272054
  0
LINE
  5
DACE
  8
0
  6
VERDECKT
 62
     1
 10
-28.1749999999996383
 20
318.2749999999999204
 30
-0.0000000000000707
 11
-27.9999999999996483
 21
317.3999999999999204
 31
-0.0000000000000705
210
0.0000000000000002
220
1.0
230
-0.0000000000000002
  0
LINE
  5
DACF
  8
0
  6
VERDECKT
 62
     1
 10
-31.8249999999996511
 20
318.2749999999999204
 30
-0.0000000000000707
 11
-31.9999999999996483
 21
317.3999999999999204
 31
-0.0000000000000705
210
0.0000000000000002
220
1.0
230
-0.0000000000000002
  0
LINE
  5
DAD0
  8
0
  6
VERDECKT
 62
     1
 10
-27.9999999999996483
 20
317.3999999999999204
 30
-0.0000000000000705
 11
-27.9999999999996483
 21
311.4999999999998863
 31
-0.0000000000000692
210
0.0000000000000002
220
1.0
230
-0.0000000000000002
  0
LINE
  5
DAD1
  8
0
  6
VERDECKT
 62
     1
 10
-31.9999999999996483
 20
317.3999999999999204
 30
-0.0000000000000705
 11
-31.9999999999996483
 21
311.4999999999998863
 31
-0.0000000000000692
210
0.0000000000000002
220
1.0
230
-0.0000000000000002
  0
ARC
  5
DAD2
  8
0
  6
VERDECKT
 62
     1
 10
32.8249999999997684
 20
318.3857864376267912
 30
0.0
 40
1.0000000000001279
210
0.0
220
-0.0000000000000002
230
-1.0
 50
135.0000000000023022
 51
179.9999999999967031
  0
ARC
  5
DAD3
  8
0
  6
VERDECKT
 62
     1
 10
27.1749999999995389
 20
318.3857864376267912
 30
0.0
 40
1.0000000000001059
210
0.0
220
-0.0000000000000002
230
-1.0
 50
0.0000000000032696
 51
44.9999999999984226
  0
LINE
  5
DAD4
  8
0
  6
VERDECKT
 62
     1
 10
-32.1178932188131014
 20
319.0928932188132876
 30
-0.0000000000000709
 11
-34.1999999999996476
 21
321.1749999999998977
 31
-0.0000000000000713
210
0.0000000000000002
220
1.0
230
-0.0000000000000002
  0
LINE
  5
DAD5
  8
0
  6
VERDECKT
 62
     1
 10
-27.8821067811861987
 20
319.0928932188132876
 30
-0.0000000000000709
 11
-25.7999999999996597
 21
321.1749999999998977
 31
-0.0000000000000713
210
0.0000000000000002
220
1.0
230
-0.0000000000000002
  0
LINE
  5
DAD6
  8
0
  6
VERDECKT
 62
     1
 10
-28.174999999999649
 20
318.3857864376267912
 30
-0.0000000000000707
 11
-28.174999999999649
 21
318.2749999999998067
 31
-0.0000000000000707
210
0.0000000000000002
220
1.0
230
-0.0000000000000002
  0
LINE
  5
DAD7
  8
0
  6
VERDECKT
 62
     1
 10
-31.8249999999996511
 20
318.3857864376267912
 30
-0.0000000000000707
 11
-31.8249999999996511
 21
318.2749999999998067
 31
-0.0000000000000707
210
0.0000000000000002
220
1.0
230
-0.0000000000000002
  0
ENDBLK
  5
DAD9
  8
0
  0
BLOCK
  8
0
  2
A$C2711CB5E
 70
     0
 10
0.0
 20
0.0
 30
0.0
  3
A$C2711CB5E
  1

  0
LINE
  5
DADD
  8
0
  6
CONTINUOUS
 62
     3
 10
50.1251133647408409
 20
0.0000000000001705
 30
0.0
 11
-50.1251133647408409
 21
0.0000000000001705
 31
0.0
210
0.0
220
1.0
230
-0.0000000000000002
  0
ARC
  5
DADE
  8
0
  6
CONTINUOUS
 62
     3
 10
-49.9999999999993392
 20
10.0436609429101402
 30
0.0
 40
1.0000000000006599
210
0.0
220
-0.0000000000000002
230
-1.0
 50
179.9999999999994884
 51
184.9999999999961062
  0
ARC
  5
DADF
  8
0
  6
CONTINUOUS
 62
     3
 10
49.9999999999993392
 20
10.0436609429101402
 30
0.0
 40
1.0000000000006599
210
0.0
220
-0.0000000000000002
230
-1.0
 50
355.0000000000038085
 51
0.0000000000005216
  0
LINE
  5
DAE0
  8
0
  6
CONTINUOUS
 62
     3
 10
-50.125113364740848
 20
0.0000000000001705
 30
0.0
 11
-50.9961946980917489
 21
9.9565052001624945
 31
-0.0000000000000022
210
0.0
220
1.0
230
-0.0000000000000002
  0
LINE
  5
DAE1
  8
0
  6
CONTINUOUS
 62
     3
 10
50.125113364740848
 20
0.0000000000001705
 30
0.0
 11
50.9961946980917489
 21
9.9565052001624945
 31
-0.0000000000000022
210
0.0
220
1.0
230
-0.0000000000000002
  0
LINE
  5
DAE2
  8
0
  6
CONTINUOUS
 62
     3
 10
-51.0
 20
10.0436609429101509
 30
-0.0000000000000022
 11
-51.0
 21
140.0000000000027001
 31
-0.0000000000000311
210
0.0
220
1.0
230
-0.0000000000000002
  0
LINE
  5
DAE3
  8
0
  6
CONTINUOUS
 62
     3
 10
51.0
 20
10.0436609429101509
 30
-0.0000000000000022
 11
51.0
 21
140.0000000000027001
 31
-0.0000000000000311
210
0.0
220
1.0
230
-0.0000000000000002
  0
CIRCLE
  5
DAE4
  8
0
  6
CONTINUOUS
 62
     3
 10
70.0000000000004547
 20
234.9999999999972999
 30
0.0
 40
50.8000000000001819
210
0.0
220
-0.0000000000000002
230
-1.0
  0
CIRCLE
  5
DAE5
  8
0
  6
CONTINUOUS
 62
     3
 10
70.0000000000004547
 20
234.9999999999972999
 30
0.0
 40
58.25
210
0.0
220
-0.0000000000000002
230
-1.0
  0
CIRCLE
  5
DAE6
  8
0
  6
CONTINUOUS
 62
     3
 10
-69.9999999999995453
 20
234.9999999999972999
 30
0.0
 40
50.8000000000001819
210
0.0
220
-0.0000000000000002
230
-1.0
  0
CIRCLE
  5
DAE7
  8
0
  6
CONTINUOUS
 62
     3
 10
-69.9999999999995453
 20
234.9999999999972999
 30
0.0
 40
58.25
210
0.0
220
-0.0000000000000002
230
-1.0
  0
LINE
  5
DAE8
  8
0
  6
CONTINUOUS
 62
     3
 10
-134.9999999999996874
 20
321.9999999999998863
 30
-0.0000000000000715
 11
134.9999999999992895
 21
321.9999999999998863
 31
-0.0000000000000715
210
0.0
220
1.0
230
-0.0000000000000002
  0
LINE
  5
DAE9
  8
0
  6
CONTINUOUS
 62
     3
 10
134.9999999999992895
 20
319.9999999999998863
 30
-0.0000000000000711
 11
-134.9999999999996874
 21
319.9999999999998863
 31
-0.0000000000000711
210
0.0
220
1.0
230
-0.0000000000000002
  0
LINE
  5
DAEA
  8
0
  6
CONTINUOUS
 62
     3
 10
-134.9999999999996874
 20
321.9999999999998863
 30
-0.0000000000000715
 11
-134.9999999999996874
 21
319.9999999999998863
 31
-0.0000000000000711
210
0.0
220
1.0
230
-0.0000000000000002
  0
LINE
  5
DAEB
  8
0
  6
CONTINUOUS
 62
     3
 10
134.9999999999992895
 20
321.9999999999998863
 30
-0.0000000000000715
 11
134.9999999999992895
 21
319.9999999999998863
 31
-0.0000000000000711
210
0.0
220
1.0
230
-0.0000000000000002
  0
LINE
  5
DAEC
  8
0
  6
CONTINUOUS
 62
     3
 10
135.0000000000111129
 20
144.0000000000025011
 30
-0.000000000000032
 11
135.0000000000108002
 21
319.9999999999997726
 31
-0.0000000000000711
210
0.0
220
1.0
230
-0.0000000000000002
  0
LINE
  5
DAED
  8
0
  6
CONTINUOUS
 62
     3
 10
-134.9999999999884892
 20
319.9999999999998863
 30
-0.0000000000000711
 11
-134.9999999999888871
 21
144.0000000000025011
 31
-0.000000000000032
210
0.0
220
1.0
230
-0.0000000000000002
  0
LINE
  5
DAEE
  8
0
  6
CONTINUOUS
 62
     3
 10
131.0000000000111129
 20
140.0000000000025011
 30
-0.0000000000000311
 11
-130.9999999999888018
 21
140.0000000000025011
 31
-0.0000000000000311
210
0.0
220
1.0
230
-0.0000000000000002
  0
ARC
  5
DAEF
  8
0
  6
CONTINUOUS
 62
     3
 10
-130.9999999999888871
 20
144.0000000000023874
 30
-0.000000000000032
 40
3.9999999999999711
 50
179.9999999999996021
 51
269.9999999999998863
  0
ARC
  5
DAF0
  8
0
  6
CONTINUOUS
 62
     3
 10
131.0000000000111129
 20
144.0000000000025011
 30
-0.000000000000032
 40
4.0000000000000053
 50
270.0
 51
359.9999999999997726
  0
CIRCLE
  5
DAF1
  8
0
  6
CONTINUOUS
 62
     3
 10
-114.9999999999996021
 20
294.9999999999998863
 30
0.0
 40
4.9999999999998437
210
0.0
220
-0.0000000000000002
230
-1.0
  0
POLYLINE
  8
0
  5
DE0D
  62
3
  66
     1
 10
0.000000
 20
0.000000
 30
0.000000
  70
     8
  0
VERTEX
  8
0
  5
DE0E
 10
-85.0000
 20
305.000
 30
-6.77000e-14
  70
    32
  0
VERTEX
  8
0
  5
DE0F
 10
-85.0006
 20
304.925
 30
-6.76836e-14
  70
    32
  0
VERTEX
  8
0
  5
DE10
 10
-85.0022
 20
304.850
 30
-6.76671e-14
  70
    32
  0
VERTEX
  8
0
  5
DE11
 10
-85.0051
 20
304.775
 30
-6.76504e-14
  70
    32
  0
VERTEX
  8
0
  5
DE12
 10
-85.0091
 20
304.699
 30
-6.76337e-14
  70
    32
  0
VERTEX
  8
0
  5
DE13
 10
-85.0143
 20
304.623
 30
-6.76170e-14
  70
    32
  0
VERTEX
  8
0
  5
DE14
 10
-85.0207
 20
304.546
 30
-6.76001e-14
  70
    32
  0
VERTEX
  8
0
  5
DE15
 10
-85.0283
 20
304.469
 30
-6.75832e-14
  70
    32
  0
VERTEX
  8
0
  5
DE16
 10
-85.0371
 20
304.392
 30
-6.75662e-14
  70
    32
  0
VERTEX
  8
0
  5
DE17
 10
-85.0472
 20
304.314
 30
-6.75491e-14
  70
    32
  0
VERTEX
  8
0
  5
DE18
 10
-85.0586
 20
304.237
 30
-6.75320e-14
  70
    32
  0
VERTEX
  8
0
  5
DE19
 10
-85.0713
 20
304.159
 30
-6.75149e-14
  70
    32
  0
VERTEX
  8
0
  5
DE1A
 10
-85.0853
 20
304.080
 30
-6.74977e-14
  70
    32
  0
VERTEX
  8
0
  5
DE1B
 10
-85.1006
 20
304.002
 30
-6.74805e-14
  70
    32
  0
VERTEX
  8
0
  5
DE1C
 10
-85.1172
 20
303.924
 30
-6.74632e-14
  70
    32
  0
VERTEX
  8
0
  5
DE1D
 10
-85.1352
 20
303.845
 30
-6.74459e-14
  70
    32
  0
VERTEX
  8
0
  5
DE1E
 10
-85.1545
 20
303.767
 30
-6.74287e-14
  70
    32
  0
VERTEX
  8
0
  5
DE1F
 10
-85.1752
 20
303.688
 30
-6.74114e-14
  70
    32
  0
VERTEX
  8
0
  5
DE20
 10
-85.1972
 20
303.609
 30
-6.73941e-14
  70
    32
  0
VERTEX
  8
0
  5
DE21
 10
-85.2207
 20
303.531
 30
-6.73768e-14
  70
    32
  0
VERTEX
  8
0
  5
DE22
 10
-85.2455
 20
303.452
 30
-6.73595e-14
  70
    32
  0
VERTEX
  8
0
  5
DE23
 10
-85.2717
 20
303.374
 30
-6.73423e-14
  70
    32
  0
VERTEX
  8
0
  5
DE24
 10
-85.2993
 20
303.296
 30
-6.73251e-14
  70
    32
  0
VERTEX
  8
0
  5
DE25
 10
-85.3284
 20
303.218
 30
-6.73079e-14
  70
    32
  0
VERTEX
  8
0
  5
DE26
 10
-85.3588
 20
303.140
 30
-6.72908e-14
  70
    32
  0
VERTEX
  8
0
  5
DE27
 10
-85.3906
 20
303.063
 30
-6.72738e-14
  70
    32
  0
VERTEX
  8
0
  5
DE28
 10
-85.4239
 20
302.985
 30
-6.72568e-14
  70
    32
  0
VERTEX
  8
0
  5
DE29
 10
-85.4585
 20
302.908
 30
-6.72398e-14
  70
    32
  0
VERTEX
  8
0
  5
DE2A
 10
-85.4946
 20
302.832
 30
-6.72230e-14
  70
    32
  0
VERTEX
  8
0
  5
DE2B
 10
-85.5320
 20
302.756
 30
-6.72062e-14
  70
    32
  0
VERTEX
  8
0
  5
DE2C
 10
-85.5709
 20
302.680
 30
-6.71896e-14
  70
    32
  0
VERTEX
  8
0
  5
DE2D
 10
-85.6111
 20
302.605
 30
-6.71730e-14
  70
    32
  0
VERTEX
  8
0
  5
DE2E
 10
-85.6527
 20
302.530
 30
-6.71566e-14
  70
    32
  0
VERTEX
  8
0
  5
DE2F
 10
-85.6957
 20
302.456
 30
-6.71403e-14
  70
    32
  0
VERTEX
  8
0
  5
DE30
 10
-85.7401
 20
302.382
 30
-6.71241e-14
  70
    32
  0
VERTEX
  8
0
  5
DE31
 10
-85.7858
 20
302.309
 30
-6.71080e-14
  70
    32
  0
VERTEX
  8
0
  5
DE32
 10
-85.8328
 20
302.237
 30
-6.70921e-14
  70
    32
  0
VERTEX
  8
0
  5
DE33
 10
-85.8812
 20
302.165
 30
-6.70764e-14
  70
    32
  0
VERTEX
  8
0
  5
DE34
 10
-85.9309
 20
302.094
 30
-6.70608e-14
  70
    32
  0
VERTEX
  8
0
  5
DE35
 10
-85.9818
 20
302.024
 30
-6.70454e-14
  70
    32
  0
VERTEX
  8
0
  5
DE36
 10
-86.0341
 20
301.955
 30
-6.70301e-14
  70
    32
  0
VERTEX
  8
0
  5
DE37
 10
-86.0876
 20
301.887
 30
-6.70151e-14
  70
    32
  0
VERTEX
  8
0
  5
DE38
 10
-86.1423
 20
301.819
 30
-6.70002e-14
  70
    32
  0
VERTEX
  8
0
  5
DE39
 10
-86.1983
 20
301.752
 30
-6.69855e-14
  70
    32
  0
VERTEX
  8
0
  5
DE3A
 10
-86.2554
 20
301.687
 30
-6.69711e-14
  70
    32
  0
VERTEX
  8
0
  5
DE3B
 10
-86.3137
 20
301.622
 30
-6.69568e-14
  70
    32
  0
VERTEX
  8
0
  5
DE3C
 10
-86.3732
 20
301.558
 30
-6.69428e-14
  70
    32
  0
VERTEX
  8
0
  5
DE3D
 10
-86.4338
 20
301.495
 30
-6.69290e-14
  70
    32
  0
VERTEX
  8
0
  5
DE3E
 10
-86.4954
 20
301.434
 30
-6.69154e-14
  70
    32
  0
VERTEX
  8
0
  5
DE3F
 10
-86.5582
 20
301.373
 30
-6.69021e-14
  70
    32
  0
VERTEX
  8
0
  5
DE40
 10
-86.6219
 20
301.314
 30
-6.68890e-14
  70
    32
  0
VERTEX
  8
0
  5
DE41
 10
-86.6867
 20
301.255
 30
-6.68762e-14
  70
    32
  0
VERTEX
  8
0
  5
DE42
 10
-86.7524
 20
301.198
 30
-6.68636e-14
  70
    32
  0
VERTEX
  8
0
  5
DE43
 10
-86.8191
 20
301.142
 30
-6.68513e-14
  70
    32
  0
VERTEX
  8
0
  5
DE44
 10
-86.8866
 20
301.088
 30
-6.68393e-14
  70
    32
  0
VERTEX
  8
0
  5
DE45
 10
-86.9551
 20
301.034
 30
-6.68275e-14
  70
    32
  0
VERTEX
  8
0
  5
DE46
 10
-87.0244
 20
300.982
 30
-6.68160e-14
  70
    32
  0
VERTEX
  8
0
  5
DE47
 10
-87.0945
 20
300.931
 30
-6.68048e-14
  70
    32
  0
VERTEX
  8
0
  5
DE48
 10
-87.1653
 20
300.881
 30
-6.67939e-14
  70
    32
  0
VERTEX
  8
0
  5
DE49
 10
-87.2369
 20
300.833
 30
-6.67832e-14
  70
    32
  0
VERTEX
  8
0
  5
DE4A
 10
-87.3092
 20
300.786
 30
-6.67729e-14
  70
    32
  0
VERTEX
  8
0
  5
DE4B
 10
-87.3822
 20
300.740
 30
-6.67628e-14
  70
    32
  0
VERTEX
  8
0
  5
DE4C
 10
-87.4558
 20
300.696
 30
-6.67531e-14
  70
    32
  0
VERTEX
  8
0
  5
DE4D
 10
-87.5299
 20
300.653
 30
-6.67436e-14
  70
    32
  0
VERTEX
  8
0
  5
DE4E
 10
-87.6047
 20
300.611
 30
-6.67344e-14
  70
    32
  0
VERTEX
  8
0
  5
DE4F
 10
-87.6799
 20
300.571
 30
-6.67256e-14
  70
    32
  0
VERTEX
  8
0
  5
DE50
 10
-87.7556
 20
300.532
 30
-6.67170e-14
  70
    32
  0
VERTEX
  8
0
  5
DE51
 10
-87.8318
 20
300.495
 30
-6.67088e-14
  70
    32
  0
VERTEX
  8
0
  5
DE52
 10
-87.9084
 20
300.459
 30
-6.67009e-14
  70
    32
  0
VERTEX
  8
0
  5
DE53
 10
-87.9853
 20
300.424
 30
-6.66933e-14
  70
    32
  0
VERTEX
  8
0
  5
DE54
 10
-88.0625
 20
300.391
 30
-6.66859e-14
  70
    32
  0
VERTEX
  8
0
  5
DE55
 10
-88.1401
 20
300.359
 30
-6.66789e-14
  70
    32
  0
VERTEX
  8
0
  5
DE56
 10
-88.2179
 20
300.328
 30
-6.66722e-14
  70
    32
  0
VERTEX
  8
0
  5
DE57
 10
-88.2959
 20
300.299
 30
-6.66659e-14
  70
    32
  0
VERTEX
  8
0
  5
DE58
 10
-88.3741
 20
300.272
 30
-6.66598e-14
  70
    32
  0
VERTEX
  8
0
  5
DE59
 10
-88.4525
 20
300.246
 30
-6.66540e-14
  70
    32
  0
VERTEX
  8
0
  5
DE5A
 10
-88.5309
 20
300.221
 30
-6.66486e-14
  70
    32
  0
VERTEX
  8
0
  5
DE5B
 10
-88.6095
 20
300.197
 30
-6.66434e-14
  70
    32
  0
VERTEX
  8
0
  5
DE5C
 10
-88.6881
 20
300.175
 30
-6.66385e-14
  70
    32
  0
VERTEX
  8
0
  5
DE5D
 10
-88.7666
 20
300.155
 30
-6.66340e-14
  70
    32
  0
VERTEX
  8
0
  5
DE5E
 10
-88.8452
 20
300.135
 30
-6.66297e-14
  70
    32
  0
VERTEX
  8
0
  5
DE5F
 10
-88.9237
 20
300.117
 30
-6.66258e-14
  70
    32
  0
VERTEX
  8
0
  5
DE60
 10
-89.0021
 20
300.101
 30
-6.66221e-14
  70
    32
  0
VERTEX
  8
0
  5
DE61
 10
-89.0804
 20
300.085
 30
-6.66188e-14
  70
    32
  0
VERTEX
  8
0
  5
DE62
 10
-89.1585
 20
300.071
 30
-6.66157e-14
  70
    32
  0
VERTEX
  8
0
  5
DE63
 10
-89.2365
 20
300.059
 30
-6.66129e-14
  70
    32
  0
VERTEX
  8
0
  5
DE64
 10
-89.3142
 20
300.047
 30
-6.66104e-14
  70
    32
  0
VERTEX
  8
0
  5
DE65
 10
-89.3918
 20
300.037
 30
-6.66082e-14
  70
    32
  0
VERTEX
  8
0
  5
DE66
 10
-89.4690
 20
300.028
 30
-6.66062e-14
  70
    32
  0
VERTEX
  8
0
  5
DE67
 10
-89.5459
 20
300.021
 30
-6.66045e-14
  70
    32
  0
VERTEX
  8
0
  5
DE68
 10
-89.6226
 20
300.014
 30
-6.66031e-14
  70
    32
  0
VERTEX
  8
0
  5
DE69
 10
-89.6988
 20
300.009
 30
-6.66020e-14
  70
    32
  0
VERTEX
  8
0
  5
DE6A
 10
-89.7747
 20
300.005
 30
-6.66011e-14
  70
    32
  0
VERTEX
  8
0
  5
DE6B
 10
-89.8502
 20
300.002
 30
-6.66005e-14
  70
    32
  0
VERTEX
  8
0
  5
DE6C
 10
-89.9253
 20
300.001
 30
-6.66001e-14
  70
    32
  0
VERTEX
  8
0
  5
DE6D
 10
-90.0000
 20
300.000
 30
-6.66000e-14
  70
    32
  0
SEQEND
  8
0
  5
DE6E
  0
POLYLINE
  8
0
  5
DE6F
  62
3
  66
     1
 10
0.000000
 20
0.000000
 30
0.000000
  70
     8
  0
VERTEX
  8
0
  5
DE70
 10
-100.000
 20
300.000
 30
-6.66000e-14
  70
    32
  0
VERTEX
  8
0
  5
DE71
 10
-100.075
 20
300.001
 30
-6.66001e-14
  70
    32
  0
VERTEX
  8
0
  5
DE72
 10
-100.150
 20
300.002
 30
-6.66005e-14
  70
    32
  0
VERTEX
  8
0
  5
DE73
 10
-100.225
 20
300.005
 30
-6.66011e-14
  70
    32
  0
VERTEX
  8
0
  5
DE74
 10
-100.301
 20
300.009
 30
-6.66020e-14
  70
    32
  0
VERTEX
  8
0
  5
DE75
 10
-100.377
 20
300.014
 30
-6.66031e-14
  70
    32
  0
VERTEX
  8
0
  5
DE76
 10
-100.454
 20
300.021
 30
-6.66045e-14
  70
    32
  0
VERTEX
  8
0
  5
DE77
 10
-100.531
 20
300.028
 30
-6.66062e-14
  70
    32
  0
VERTEX
  8
0
  5
DE78
 10
-100.608
 20
300.037
 30
-6.66082e-14
  70
    32
  0
VERTEX
  8
0
  5
DE79
 10
-100.686
 20
300.047
 30
-6.66104e-14
  70
    32
  0
VERTEX
  8
0
  5
DE7A
 10
-100.763
 20
300.059
 30
-6.66129e-14
  70
    32
  0
VERTEX
  8
0
  5
DE7B
 10
-100.841
 20
300.071
 30
-6.66157e-14
  70
    32
  0
VERTEX
  8
0
  5
DE7C
 10
-100.920
 20
300.085
 30
-6.66188e-14
  70
    32
  0
VERTEX
  8
0
  5
DE7D
 10
-100.998
 20
300.101
 30
-6.66221e-14
  70
    32
  0
VERTEX
  8
0
  5
DE7E
 10
-101.076
 20
300.117
 30
-6.66258e-14
  70
    32
  0
VERTEX
  8
0
  5
DE7F
 10
-101.155
 20
300.135
 30
-6.66297e-14
  70
    32
  0
VERTEX
  8
0
  5
DE80
 10
-101.233
 20
300.155
 30
-6.66340e-14
  70
    32
  0
VERTEX
  8
0
  5
DE81
 10
-101.312
 20
300.175
 30
-6.66385e-14
  70
    32
  0
VERTEX
  8
0
  5
DE82
 10
-101.391
 20
300.197
 30
-6.66434e-14
  70
    32
  0
VERTEX
  8
0
  5
DE83
 10
-101.469
 20
300.221
 30
-6.66486e-14
  70
    32
  0
VERTEX
  8
0
  5
DE84
 10
-101.548
 20
300.246
 30
-6.66540e-14
  70
    32
  0
VERTEX
  8
0
  5
DE85
 10
-101.626
 20
300.272
 30
-6.66598e-14
  70
    32
  0
VERTEX
  8
0
  5
DE86
 10
-101.704
 20
300.299
 30
-6.66659e-14
  70
    32
  0
VERTEX
  8
0
  5
DE87
 10
-101.782
 20
300.328
 30
-6.66722e-14
  70
    32
  0
VERTEX
  8
0
  5
DE88
 10
-101.860
 20
300.359
 30
-6.66789e-14
  70
    32
  0
VERTEX
  8
0
  5
DE89
 10
-101.937
 20
300.391
 30
-6.66859e-14
  70
    32
  0
VERTEX
  8
0
  5
DE8A
 10
-102.015
 20
300.424
 30
-6.66933e-14
  70
    32
  0
VERTEX
  8
0
  5
DE8B
 10
-102.092
 20
300.459
 30
-6.67009e-14
  70
    32
  0
VERTEX
  8
0
  5
DE8C
 10
-102.168
 20
300.495
 30
-6.67088e-14
  70
    32
  0
VERTEX
  8
0
  5
DE8D
 10
-102.244
 20
300.532
 30
-6.67170e-14
  70
    32
  0
VERTEX
  8
0
  5
DE8E
 10
-102.320
 20
300.571
 30
-6.67256e-14
  70
    32
  0
VERTEX
  8
0
  5
DE8F
 10
-102.395
 20
300.611
 30
-6.67344e-14
  70
    32
  0
VERTEX
  8
0
  5
DE90
 10
-102.470
 20
300.653
 30
-6.67436e-14
  70
    32
  0
VERTEX
  8
0
  5
DE91
 10
-102.544
 20
300.696
 30
-6.67531e-14
  70
    32
  0
VERTEX
  8
0
  5
DE92
 10
-102.618
 20
300.740
 30
-6.67628e-14
  70
    32
  0
VERTEX
  8
0
  5
DE93
 10
-102.691
 20
300.786
 30
-6.67729e-14
  70
    32
  0
VERTEX
  8
0
  5
DE94
 10
-102.763
 20
300.833
 30
-6.67832e-14
  70
    32
  0
VERTEX
  8
0
  5
DE95
 10
-102.835
 20
300.881
 30
-6.67939e-14
  70
    32
  0
VERTEX
  8
0
  5
DE96
 10
-102.906
 20
300.931
 30
-6.68048e-14
  70
    32
  0
VERTEX
  8
0
  5
DE97
 10
-102.976
 20
300.982
 30
-6.68160e-14
  70
    32
  0
VERTEX
  8
0
  5
DE98
 10
-103.045
 20
301.034
 30
-6.68275e-14
  70
    32
  0
VERTEX
  8
0
  5
DE99
 10
-103.113
 20
301.088
 30
-6.68393e-14
  70
    32
  0
VERTEX
  8
0
  5
DE9A
 10
-103.181
 20
301.142
 30
-6.68513e-14
  70
    32
  0
VERTEX
  8
0
  5
DE9B
 10
-103.248
 20
301.198
 30
-6.68636e-14
  70
    32
  0
VERTEX
  8
0
  5
DE9C
 10
-103.313
 20
301.255
 30
-6.68762e-14
  70
    32
  0
VERTEX
  8
0
  5
DE9D
 10
-103.378
 20
301.314
 30
-6.68890e-14
  70
    32
  0
VERTEX
  8
0
  5
DE9E
 10
-103.442
 20
301.373
 30
-6.69021e-14
  70
    32
  0
VERTEX
  8
0
  5
DE9F
 10
-103.505
 20
301.434
 30
-6.69154e-14
  70
    32
  0
VERTEX
  8
0
  5
DEA0
 10
-103.566
 20
301.495
 30
-6.69290e-14
  70
    32
  0
VERTEX
  8
0
  5
DEA1
 10
-103.627
 20
301.558
 30
-6.69428e-14
  70
    32
  0
VERTEX
  8
0
  5
DEA2
 10
-103.686
 20
301.622
 30
-6.69568e-14
  70
    32
  0
VERTEX
  8
0
  5
DEA3
 10
-103.745
 20
301.687
 30
-6.69711e-14
  70
    32
  0
VERTEX
  8
0
  5
DEA4
 10
-103.802
 20
301.752
 30
-6.69855e-14
  70
    32
  0
VERTEX
  8
0
  5
DEA5
 10
-103.858
 20
301.819
 30
-6.70002e-14
  70
    32
  0
VERTEX
  8
0
  5
DEA6
 10
-103.912
 20
301.887
 30
-6.70151e-14
  70
    32
  0
VERTEX
  8
0
  5
DEA7
 10
-103.966
 20
301.955
 30
-6.70301e-14
  70
    32
  0
VERTEX
  8
0
  5
DEA8
 10
-104.018
 20
302.024
 30
-6.70454e-14
  70
    32
  0
VERTEX
  8
0
  5
DEA9
 10
-104.069
 20
302.094
 30
-6.70608e-14
  70
    32
  0
VERTEX
  8
0
  5
DEAA
 10
-104.119
 20
302.165
 30
-6.70764e-14
  70
    32
  0
VERTEX
  8
0
  5
DEAB
 10
-104.167
 20
302.237
 30
-6.70921e-14
  70
    32
  0
VERTEX
  8
0
  5
DEAC
 10
-104.214
 20
302.309
 30
-6.71080e-14
  70
    32
  0
VERTEX
  8
0
  5
DEAD
 10
-104.260
 20
302.382
 30
-6.71241e-14
  70
    32
  0
VERTEX
  8
0
  5
DEAE
 10
-104.304
 20
302.456
 30
-6.71403e-14
  70
    32
  0
VERTEX
  8
0
  5
DEAF
 10
-104.347
 20
302.530
 30
-6.71566e-14
  70
    32
  0
VERTEX
  8
0
  5
DEB0
 10
-104.389
 20
302.605
 30
-6.71730e-14
  70
    32
  0
VERTEX
  8
0
  5
DEB1
 10
-104.429
 20
302.680
 30
-6.71896e-14
  70
    32
  0
VERTEX
  8
0
  5
DEB2
 10
-104.468
 20
302.756
 30
-6.72062e-14
  70
    32
  0
VERTEX
  8
0
  5
DEB3
 10
-104.505
 20
302.832
 30
-6.72230e-14
  70
    32
  0
VERTEX
  8
0
  5
DEB4
 10
-104.541
 20
302.908
 30
-6.72398e-14
  70
    32
  0
VERTEX
  8
0
  5
DEB5
 10
-104.576
 20
302.985
 30
-6.72568e-14
  70
    32
  0
VERTEX
  8
0
  5
DEB6
 10
-104.609
 20
303.063
 30
-6.72738e-14
  70
    32
  0
VERTEX
  8
0
  5
DEB7
 10
-104.641
 20
303.140
 30
-6.72908e-14
  70
    32
  0
VERTEX
  8
0
  5
DEB8
 10
-104.672
 20
303.218
 30
-6.73079e-14
  70
    32
  0
VERTEX
  8
0
  5
DEB9
 10
-104.701
 20
303.296
 30
-6.73251e-14
  70
    32
  0
VERTEX
  8
0
  5
DEBA
 10
-104.728
 20
303.374
 30
-6.73423e-14
  70
    32
  0
VERTEX
  8
0
  5
DEBB
 10
-104.754
 20
303.452
 30
-6.73595e-14
  70
    32
  0
VERTEX
  8
0
  5
DEBC
 10
-104.779
 20
303.531
 30
-6.73768e-14
  70
    32
  0
VERTEX
  8
0
  5
DEBD
 10
-104.803
 20
303.609
 30
-6.73941e-14
  70
    32
  0
VERTEX
  8
0
  5
DEBE
 10
-104.825
 20
303.688
 30
-6.74114e-14
  70
    32
  0
VERTEX
  8
0
  5
DEBF
 10
-104.845
 20
303.767
 30
-6.74287e-14
  70
    32
  0
VERTEX
  8
0
  5
DEC0
 10
-104.865
 20
303.845
 30
-6.74459e-14
  70
    32
  0
VERTEX
  8
0
  5
DEC1
 10
-104.883
 20
303.924
 30
-6.74632e-14
  70
    32
  0
VERTEX
  8
0
  5
DEC2
 10
-104.899
 20
304.002
 30
-6.74805e-14
  70
    32
  0
VERTEX
  8
0
  5
DEC3
 10
-104.915
 20
304.080
 30
-6.74977e-14
  70
    32
  0
VERTEX
  8
0
  5
DEC4
 10
-104.929
 20
304.159
 30
-6.75149e-14
  70
    32
  0
VERTEX
  8
0
  5
DEC5
 10
-104.941
 20
304.237
 30
-6.75320e-14
  70
    32
  0
VERTEX
  8
0
  5
DEC6
 10
-104.953
 20
304.314
 30
-6.75491e-14
  70
    32
  0
VERTEX
  8
0
  5
DEC7
 10
-104.963
 20
304.392
 30
-6.75662e-14
  70
    32
  0
VERTEX
  8
0
  5
DEC8
 10
-104.972
 20
304.469
 30
-6.75832e-14
  70
    32
  0
VERTEX
  8
0
  5
DEC9
 10
-104.979
 20
304.546
 30
-6.76001e-14
  70
    32
  0
VERTEX
  8
0
  5
DECA
 10
-104.986
 20
304.623
 30
-6.76170e-14
  70
    32
  0
VERTEX
  8
0
  5
DECB
 10
-104.991
 20
304.699
 30
-6.76337e-14
  70
    32
  0
VERTEX
  8
0
  5
DECC
 10
-104.995
 20
304.775
 30
-6.76504e-14
  70
    32
  0
VERTEX
  8
0
  5
DECD
 10
-104.998
 20
304.850
 30
-6.76671e-14
  70
    32
  0
VERTEX
  8
0
  5
DECE
 10
-104.999
 20
304.925
 30
-6.76836e-14
  70
    32
  0
VERTEX
  8
0
  5
DECF
 10
-105.000
 20
305.000
 30
-6.77000e-14
  70
    32
  0
SEQEND
  8
0
  5
DED0
  0
POLYLINE
  8
0
  5
DED1
  62
3
  66
     1
 10
0.000000
 20
0.000000
 30
0.000000
  70
     8
  0
VERTEX
  8
0
  5
DED2
 10
-105.000
 20
305.000
 30
-6.77000e-14
  70
    32
  0
VERTEX
  8
0
  5
DED3
 10
-104.999
 20
305.075
 30
-6.77164e-14
  70
    32
  0
VERTEX
  8
0
  5
DED4
 10
-104.998
 20
305.150
 30
-6.77329e-14
  70
    32
  0
VERTEX
  8
0
  5
DED5
 10
-104.995
 20
305.225
 30
-6.77496e-14
  70
    32
  0
VERTEX
  8
0
  5
DED6
 10
-104.991
 20
305.301
 30
-6.77663e-14
  70
    32
  0
VERTEX
  8
0
  5
DED7
 10
-104.986
 20
305.377
 30
-6.77830e-14
  70
    32
  0
VERTEX
  8
0
  5
DED8
 10
-104.979
 20
305.454
 30
-6.77999e-14
  70
    32
  0
VERTEX
  8
0
  5
DED9
 10
-104.972
 20
305.531
 30
-6.78168e-14
  70
    32
  0
VERTEX
  8
0
  5
DEDA
 10
-104.963
 20
305.608
 30
-6.78338e-14
  70
    32
  0
VERTEX
  8
0
  5
DEDB
 10
-104.953
 20
305.686
 30
-6.78509e-14
  70
    32
  0
VERTEX
  8
0
  5
DEDC
 10
-104.941
 20
305.763
 30
-6.78680e-14
  70
    32
  0
VERTEX
  8
0
  5
DEDD
 10
-104.929
 20
305.841
 30
-6.78851e-14
  70
    32
  0
VERTEX
  8
0
  5
DEDE
 10
-104.915
 20
305.920
 30
-6.79023e-14
  70
    32
  0
VERTEX
  8
0
  5
DEDF
 10
-104.899
 20
305.998
 30
-6.79195e-14
  70
    32
  0
VERTEX
  8
0
  5
DEE0
 10
-104.883
 20
306.076
 30
-6.79368e-14
  70
    32
  0
VERTEX
  8
0
  5
DEE1
 10
-104.865
 20
306.155
 30
-6.79541e-14
  70
    32
  0
VERTEX
  8
0
  5
DEE2
 10
-104.845
 20
306.233
 30
-6.79713e-14
  70
    32
  0
VERTEX
  8
0
  5
DEE3
 10
-104.825
 20
306.312
 30
-6.79886e-14
  70
    32
  0
VERTEX
  8
0
  5
DEE4
 10
-104.803
 20
306.391
 30
-6.80059e-14
  70
    32
  0
VERTEX
  8
0
  5
DEE5
 10
-104.779
 20
306.469
 30
-6.80232e-14
  70
    32
  0
VERTEX
  8
0
  5
DEE6
 10
-104.754
 20
306.548
 30
-6.80405e-14
  70
    32
  0
VERTEX
  8
0
  5
DEE7
 10
-104.728
 20
306.626
 30
-6.80577e-14
  70
    32
  0
VERTEX
  8
0
  5
DEE8
 10
-104.701
 20
306.704
 30
-6.80749e-14
  70
    32
  0
VERTEX
  8
0
  5
DEE9
 10
-104.672
 20
306.782
 30
-6.80921e-14
  70
    32
  0
VERTEX
  8
0
  5
DEEA
 10
-104.641
 20
306.860
 30
-6.81092e-14
  70
    32
  0
VERTEX
  8
0
  5
DEEB
 10
-104.609
 20
306.937
 30
-6.81262e-14
  70
    32
  0
VERTEX
  8
0
  5
DEEC
 10
-104.576
 20
307.015
 30
-6.81432e-14
  70
    32
  0
VERTEX
  8
0
  5
DEED
 10
-104.541
 20
307.092
 30
-6.81602e-14
  70
    32
  0
VERTEX
  8
0
  5
DEEE
 10
-104.505
 20
307.168
 30
-6.81770e-14
  70
    32
  0
VERTEX
  8
0
  5
DEEF
 10
-104.468
 20
307.244
 30
-6.81938e-14
  70
    32
  0
VERTEX
  8
0
  5
DEF0
 10
-104.429
 20
307.320
 30
-6.82104e-14
  70
    32
  0
VERTEX
  8
0
  5
DEF1
 10
-104.389
 20
307.395
 30
-6.82270e-14
  70
    32
  0
VERTEX
  8
0
  5
DEF2
 10
-104.347
 20
307.470
 30
-6.82434e-14
  70
    32
  0
VERTEX
  8
0
  5
DEF3
 10
-104.304
 20
307.544
 30
-6.82597e-14
  70
    32
  0
VERTEX
  8
0
  5
DEF4
 10
-104.260
 20
307.618
 30
-6.82759e-14
  70
    32
  0
VERTEX
  8
0
  5
DEF5
 10
-104.214
 20
307.691
 30
-6.82920e-14
  70
    32
  0
VERTEX
  8
0
  5
DEF6
 10
-104.167
 20
307.763
 30
-6.83079e-14
  70
    32
  0
VERTEX
  8
0
  5
DEF7
 10
-104.119
 20
307.835
 30
-6.83236e-14
  70
    32
  0
VERTEX
  8
0
  5
DEF8
 10
-104.069
 20
307.906
 30
-6.83392e-14
  70
    32
  0
VERTEX
  8
0
  5
DEF9
 10
-104.018
 20
307.976
 30
-6.83546e-14
  70
    32
  0
VERTEX
  8
0
  5
DEFA
 10
-103.966
 20
308.045
 30
-6.83699e-14
  70
    32
  0
VERTEX
  8
0
  5
DEFB
 10
-103.912
 20
308.113
 30
-6.83849e-14
  70
    32
  0
VERTEX
  8
0
  5
DEFC
 10
-103.858
 20
308.181
 30
-6.83998e-14
  70
    32
  0
VERTEX
  8
0
  5
DEFD
 10
-103.802
 20
308.248
 30
-6.84145e-14
  70
    32
  0
VERTEX
  8
0
  5
DEFE
 10
-103.745
 20
308.313
 30
-6.84289e-14
  70
    32
  0
VERTEX
  8
0
  5
DEFF
 10
-103.686
 20
308.378
 30
-6.84432e-14
  70
    32
  0
VERTEX
  8
0
  5
DF00
 10
-103.627
 20
308.442
 30
-6.84572e-14
  70
    32
  0
VERTEX
  8
0
  5
DF01
 10
-103.566
 20
308.505
 30
-6.84710e-14
  70
    32
  0
VERTEX
  8
0
  5
DF02
 10
-103.505
 20
308.566
 30
-6.84846e-14
  70
    32
  0
VERTEX
  8
0
  5
DF03
 10
-103.442
 20
308.627
 30
-6.84979e-14
  70
    32
  0
VERTEX
  8
0
  5
DF04
 10
-103.378
 20
308.686
 30
-6.85110e-14
  70
    32
  0
VERTEX
  8
0
  5
DF05
 10
-103.313
 20
308.745
 30
-6.85238e-14
  70
    32
  0
VERTEX
  8
0
  5
DF06
 10
-103.248
 20
308.802
 30
-6.85364e-14
  70
    32
  0
VERTEX
  8
0
  5
DF07
 10
-103.181
 20
308.858
 30
-6.85487e-14
  70
    32
  0
VERTEX
  8
0
  5
DF08
 10
-103.113
 20
308.912
 30
-6.85607e-14
  70
    32
  0
VERTEX
  8
0
  5
DF09
 10
-103.045
 20
308.966
 30
-6.85725e-14
  70
    32
  0
VERTEX
  8
0
  5
DF0A
 10
-102.976
 20
309.018
 30
-6.85840e-14
  70
    32
  0
VERTEX
  8
0
  5
DF0B
 10
-102.906
 20
309.069
 30
-6.85952e-14
  70
    32
  0
VERTEX
  8
0
  5
DF0C
 10
-102.835
 20
309.119
 30
-6.86061e-14
  70
    32
  0
VERTEX
  8
0
  5
DF0D
 10
-102.763
 20
309.167
 30
-6.86168e-14
  70
    32
  0
VERTEX
  8
0
  5
DF0E
 10
-102.691
 20
309.214
 30
-6.86271e-14
  70
    32
  0
VERTEX
  8
0
  5
DF0F
 10
-102.618
 20
309.260
 30
-6.86372e-14
  70
    32
  0
VERTEX
  8
0
  5
DF10
 10
-102.544
 20
309.304
 30
-6.86469e-14
  70
    32
  0
VERTEX
  8
0
  5
DF11
 10
-102.470
 20
309.347
 30
-6.86564e-14
  70
    32
  0
VERTEX
  8
0
  5
DF12
 10
-102.395
 20
309.389
 30
-6.86656e-14
  70
    32
  0
VERTEX
  8
0
  5
DF13
 10
-102.320
 20
309.429
 30
-6.86744e-14
  70
    32
  0
VERTEX
  8
0
  5
DF14
 10
-102.244
 20
309.468
 30
-6.86830e-14
  70
    32
  0
VERTEX
  8
0
  5
DF15
 10
-102.168
 20
309.505
 30
-6.86912e-14
  70
    32
  0
VERTEX
  8
0
  5
DF16
 10
-102.092
 20
309.541
 30
-6.86991e-14
  70
    32
  0
VERTEX
  8
0
  5
DF17
 10
-102.015
 20
309.576
 30
-6.87067e-14
  70
    32
  0
VERTEX
  8
0
  5
DF18
 10
-101.937
 20
309.609
 30
-6.87141e-14
  70
    32
  0
VERTEX
  8
0
  5
DF19
 10
-101.860
 20
309.641
 30
-6.87211e-14
  70
    32
  0
VERTEX
  8
0
  5
DF1A
 10
-101.782
 20
309.672
 30
-6.87278e-14
  70
    32
  0
VERTEX
  8
0
  5
DF1B
 10
-101.704
 20
309.701
 30
-6.87341e-14
  70
    32
  0
VERTEX
  8
0
  5
DF1C
 10
-101.626
 20
309.728
 30
-6.87402e-14
  70
    32
  0
VERTEX
  8
0
  5
DF1D
 10
-101.548
 20
309.754
 30
-6.87460e-14
  70
    32
  0
VERTEX
  8
0
  5
DF1E
 10
-101.469
 20
309.779
 30
-6.87514e-14
  70
    32
  0
VERTEX
  8
0
  5
DF1F
 10
-101.391
 20
309.803
 30
-6.87566e-14
  70
    32
  0
VERTEX
  8
0
  5
DF20
 10
-101.312
 20
309.825
 30
-6.87615e-14
  70
    32
  0
VERTEX
  8
0
  5
DF21
 10
-101.233
 20
309.845
 30
-6.87660e-14
  70
    32
  0
VERTEX
  8
0
  5
DF22
 10
-101.155
 20
309.865
 30
-6.87703e-14
  70
    32
  0
VERTEX
  8
0
  5
DF23
 10
-101.076
 20
309.883
 30
-6.87742e-14
  70
    32
  0
VERTEX
  8
0
  5
DF24
 10
-100.998
 20
309.899
 30
-6.87779e-14
  70
    32
  0
VERTEX
  8
0
  5
DF25
 10
-100.920
 20
309.915
 30
-6.87812e-14
  70
    32
  0
VERTEX
  8
0
  5
DF26
 10
-100.841
 20
309.929
 30
-6.87843e-14
  70
    32
  0
VERTEX
  8
0
  5
DF27
 10
-100.763
 20
309.941
 30
-6.87871e-14
  70
    32
  0
VERTEX
  8
0
  5
DF28
 10
-100.686
 20
309.953
 30
-6.87896e-14
  70
    32
  0
VERTEX
  8
0
  5
DF29
 10
-100.608
 20
309.963
 30
-6.87918e-14
  70
    32
  0
VERTEX
  8
0
  5
DF2A
 10
-100.531
 20
309.972
 30
-6.87938e-14
  70
    32
  0
VERTEX
  8
0
  5
DF2B
 10
-100.454
 20
309.979
 30
-6.87955e-14
  70
    32
  0
VERTEX
  8
0
  5
DF2C
 10
-100.377
 20
309.986
 30
-6.87969e-14
  70
    32
  0
VERTEX
  8
0
  5
DF2D
 10
-100.301
 20
309.991
 30
-6.87980e-14
  70
    32
  0
VERTEX
  8
0
  5
DF2E
 10
-100.225
 20
309.995
 30
-6.87989e-14
  70
    32
  0
VERTEX
  8
0
  5
DF2F
 10
-100.150
 20
309.998
 30
-6.87995e-14
  70
    32
  0
VERTEX
  8
0
  5
DF30
 10
-100.075
 20
309.999
 30
-6.87999e-14
  70
    32
  0
VERTEX
  8
0
  5
DF31
 10
-100.000
 20
310.000
 30
-6.88000e-14
  70
    32
  0
SEQEND
  8
0
  5
DF32
  0
POLYLINE
  8
0
  5
DF33
  62
3
  66
     1
 10
0.000000
 20
0.000000
 30
0.000000
  70
     8
  0
VERTEX
  8
0
  5
DF34
 10
-90.0000
 20
310.000
 30
-6.88000e-14
  70
    32
  0
VERTEX
  8
0
  5
DF35
 10
-89.9253
 20
309.999
 30
-6.87999e-14
  70
    32
  0
VERTEX
  8
0
  5
DF36
 10
-89.8502
 20
309.998
 30
-6.87995e-14
  70
    32
  0
VERTEX
  8
0
  5
DF37
 10
-89.7747
 20
309.995
 30
-6.87989e-14
  70
    32
  0
VERTEX
  8
0
  5
DF38
 10
-89.6988
 20
309.991
 30
-6.87980e-14
  70
    32
  0
VERTEX
  8
0
  5
DF39
 10
-89.6226
 20
309.986
 30
-6.87969e-14
  70
    32
  0
VERTEX
  8
0
  5
DF3A
 10
-89.5459
 20
309.979
 30
-6.87955e-14
  70
    32
  0
VERTEX
  8
0
  5
DF3B
 10
-89.4690
 20
309.972
 30
-6.87938e-14
  70
    32
  0
VERTEX
  8
0
  5
DF3C
 10
-89.3918
 20
309.963
 30
-6.87918e-14
  70
    32
  0
VERTEX
  8
0
  5
DF3D
 10
-89.3142
 20
309.953
 30
-6.87896e-14
  70
    32
  0
VERTEX
  8
0
  5
DF3E
 10
-89.2365
 20
309.941
 30
-6.87871e-14
  70
    32
  0
VERTEX
  8
0
  5
DF3F
 10
-89.1585
 20
309.929
 30
-6.87843e-14
  70
    32
  0
VERTEX
  8
0
  5
DF40
 10
-89.0804
 20
309.915
 30
-6.87812e-14
  70
    32
  0
VERTEX
  8
0
  5
DF41
 10
-89.0021
 20
309.899
 30
-6.87779e-14
  70
    32
  0
VERTEX
  8
0
  5
DF42
 10
-88.9237
 20
309.883
 30
-6.87742e-14
  70
    32
  0
VERTEX
  8
0
  5
DF43
 10
-88.8452
 20
309.865
 30
-6.87703e-14
  70
    32
  0
VERTEX
  8
0
  5
DF44
 10
-88.7666
 20
309.845
 30
-6.87660e-14
  70
    32
  0
VERTEX
  8
0
  5
DF45
 10
-88.6881
 20
309.825
 30
-6.87615e-14
  70
    32
  0
VERTEX
  8
0
  5
DF46
 10
-88.6095
 20
309.803
 30
-6.87566e-14
  70
    32
  0
VERTEX
  8
0
  5
DF47
 10
-88.5309
 20
309.779
 30
-6.87514e-14
  70
    32
  0
VERTEX
  8
0
  5
DF48
 10
-88.4525
 20
309.754
 30
-6.87460e-14
  70
    32
  0
VERTEX
  8
0
  5
DF49
 10
-88.3741
 20
309.728
 30
-6.87402e-14
  70
    32
  0
VERTEX
  8
0
  5
DF4A
 10
-88.2959
 20
309.701
 30
-6.87341e-14
  70
    32
  0
VERTEX
  8
0
  5
DF4B
 10
-88.2179
 20
309.672
 30
-6.87278e-14
  70
    32
  0
VERTEX
  8
0
  5
DF4C
 10
-88.1401
 20
309.641
 30
-6.87211e-14
  70
    32
  0
VERTEX
  8
0
  5
DF4D
 10
-88.0625
 20
309.609
 30
-6.87141e-14
  70
    32
  0
VERTEX
  8
0
  5
DF4E
 10
-87.9853
 20
309.576
 30
-6.87067e-14
  70
    32
  0
VERTEX
  8
0
  5
DF4F
 10
-87.9084
 20
309.541
 30
-6.86991e-14
  70
    32
  0
VERTEX
  8
0
  5
DF50
 10
-87.8318
 20
309.505
 30
-6.86912e-14
  70
    32
  0
VERTEX
  8
0
  5
DF51
 10
-87.7556
 20
309.468
 30
-6.86830e-14
  70
    32
  0
VERTEX
  8
0
  5
DF52
 10
-87.6799
 20
309.429
 30
-6.86744e-14
  70
    32
  0
VERTEX
  8
0
  5
DF53
 10
-87.6047
 20
309.389
 30
-6.86656e-14
  70
    32
  0
VERTEX
  8
0
  5
DF54
 10
-87.5299
 20
309.347
 30
-6.86564e-14
  70
    32
  0
VERTEX
  8
0
  5
DF55
 10
-87.4558
 20
309.304
 30
-6.86469e-14
  70
    32
  0
VERTEX
  8
0
  5
DF56
 10
-87.3822
 20
309.260
 30
-6.86372e-14
  70
    32
  0
VERTEX
  8
0
  5
DF57
 10
-87.3092
 20
309.214
 30
-6.86271e-14
  70
    32
  0
VERTEX
  8
0
  5
DF58
 10
-87.2369
 20
309.167
 30
-6.86168e-14
  70
    32
  0
VERTEX
  8
0
  5
DF59
 10
-87.1653
 20
309.119
 30
-6.86061e-14
  70
    32
  0
VERTEX
  8
0
  5
DF5A
 10
-87.0945
 20
309.069
 30
-6.85952e-14
  70
    32
  0
VERTEX
  8
0
  5
DF5B
 10
-87.0244
 20
309.018
 30
-6.85840e-14
  70
    32
  0
VERTEX
  8
0
  5
DF5C
 10
-86.9551
 20
308.966
 30
-6.85725e-14
  70
    32
  0
VERTEX
  8
0
  5
DF5D
 10
-86.8866
 20
308.912
 30
-6.85607e-14
  70
    32
  0
VERTEX
  8
0
  5
DF5E
 10
-86.8191
 20
308.858
 30
-6.85487e-14
  70
    32
  0
VERTEX
  8
0
  5
DF5F
 10
-86.7524
 20
308.802
 30
-6.85364e-14
  70
    32
  0
VERTEX
  8
0
  5
DF60
 10
-86.6867
 20
308.745
 30
-6.85238e-14
  70
    32
  0
VERTEX
  8
0
  5
DF61
 10
-86.6219
 20
308.686
 30
-6.85110e-14
  70
    32
  0
VERTEX
  8
0
  5
DF62
 10
-86.5582
 20
308.627
 30
-6.84979e-14
  70
    32
  0
VERTEX
  8
0
  5
DF63
 10
-86.4954
 20
308.566
 30
-6.84846e-14
  70
    32
  0
VERTEX
  8
0
  5
DF64
 10
-86.4338
 20
308.505
 30
-6.84710e-14
  70
    32
  0
VERTEX
  8
0
  5
DF65
 10
-86.3732
 20
308.442
 30
-6.84572e-14
  70
    32
  0
VERTEX
  8
0
  5
DF66
 10
-86.3137
 20
308.378
 30
-6.84432e-14
  70
    32
  0
VERTEX
  8
0
  5
DF67
 10
-86.2554
 20
308.313
 30
-6.84289e-14
  70
    32
  0
VERTEX
  8
0
  5
DF68
 10
-86.1983
 20
308.248
 30
-6.84145e-14
  70
    32
  0
VERTEX
  8
0
  5
DF69
 10
-86.1423
 20
308.181
 30
-6.83998e-14
  70
    32
  0
VERTEX
  8
0
  5
DF6A
 10
-86.0876
 20
308.113
 30
-6.83849e-14
  70
    32
  0
VERTEX
  8
0
  5
DF6B
 10
-86.0341
 20
308.045
 30
-6.83699e-14
  70
    32
  0
VERTEX
  8
0
  5
DF6C
 10
-85.9818
 20
307.976
 30
-6.83546e-14
  70
    32
  0
VERTEX
  8
0
  5
DF6D
 10
-85.9309
 20
307.906
 30
-6.83392e-14
  70
    32
  0
VERTEX
  8
0
  5
DF6E
 10
-85.8812
 20
307.835
 30
-6.83236e-14
  70
    32
  0
VERTEX
  8
0
  5
DF6F
 10
-85.8328
 20
307.763
 30
-6.83079e-14
  70
    32
  0
VERTEX
  8
0
  5
DF70
 10
-85.7858
 20
307.691
 30
-6.82920e-14
  70
    32
  0
VERTEX
  8
0
  5
DF71
 10
-85.7401
 20
307.618
 30
-6.82759e-14
  70
    32
  0
VERTEX
  8
0
  5
DF72
 10
-85.6957
 20
307.544
 30
-6.82597e-14
  70
    32
  0
VERTEX
  8
0
  5
DF73
 10
-85.6527
 20
307.470
 30
-6.82434e-14
  70
    32
  0
VERTEX
  8
0
  5
DF74
 10
-85.6111
 20
307.395
 30
-6.82270e-14
  70
    32
  0
VERTEX
  8
0
  5
DF75
 10
-85.5709
 20
307.320
 30
-6.82104e-14
  70
    32
  0
VERTEX
  8
0
  5
DF76
 10
-85.5320
 20
307.244
 30
-6.81938e-14
  70
    32
  0
VERTEX
  8
0
  5
DF77
 10
-85.4946
 20
307.168
 30
-6.81770e-14
  70
    32
  0
VERTEX
  8
0
  5
DF78
 10
-85.4585
 20
307.092
 30
-6.81602e-14
  70
    32
  0
VERTEX
  8
0
  5
DF79
 10
-85.4239
 20
307.015
 30
-6.81432e-14
  70
    32
  0
VERTEX
  8
0
  5
DF7A
 10
-85.3906
 20
306.937
 30
-6.81262e-14
  70
    32
  0
VERTEX
  8
0
  5
DF7B
 10
-85.3588
 20
306.860
 30
-6.81092e-14
  70
    32
  0
VERTEX
  8
0
  5
DF7C
 10
-85.3284
 20
306.782
 30
-6.80921e-14
  70
    32
  0
VERTEX
  8
0
  5
DF7D
 10
-85.2993
 20
306.704
 30
-6.80749e-14
  70
    32
  0
VERTEX
  8
0
  5
DF7E
 10
-85.2717
 20
306.626
 30
-6.80577e-14
  70
    32
  0
VERTEX
  8
0
  5
DF7F
 10
-85.2455
 20
306.548
 30
-6.80405e-14
  70
    32
  0
VERTEX
  8
0
  5
DF80
 10
-85.2207
 20
306.469
 30
-6.80232e-14
  70
    32
  0
VERTEX
  8
0
  5
DF81
 10
-85.1972
 20
306.391
 30
-6.80059e-14
  70
    32
  0
VERTEX
  8
0
  5
DF82
 10
-85.1752
 20
306.312
 30
-6.79886e-14
  70
    32
  0
VERTEX
  8
0
  5
DF83
 10
-85.1545
 20
306.233
 30
-6.79713e-14
  70
    32
  0
VERTEX
  8
0
  5
DF84
 10
-85.1352
 20
306.155
 30
-6.79541e-14
  70
    32
  0
VERTEX
  8
0
  5
DF85
 10
-85.1172
 20
306.076
 30
-6.79368e-14
  70
    32
  0
VERTEX
  8
0
  5
DF86
 10
-85.1006
 20
305.998
 30
-6.79195e-14
  70
    32
  0
VERTEX
  8
0
  5
DF87
 10
-85.0853
 20
305.920
 30
-6.79023e-14
  70
    32
  0
VERTEX
  8
0
  5
DF88
 10
-85.0713
 20
305.841
 30
-6.78851e-14
  70
    32
  0
VERTEX
  8
0
  5
DF89
 10
-85.0586
 20
305.763
 30
-6.78680e-14
  70
    32
  0
VERTEX
  8
0
  5
DF8A
 10
-85.0472
 20
305.686
 30
-6.78509e-14
  70
    32
  0
VERTEX
  8
0
  5
DF8B
 10
-85.0371
 20
305.608
 30
-6.78338e-14
  70
    32
  0
VERTEX
  8
0
  5
DF8C
 10
-85.0283
 20
305.531
 30
-6.78168e-14
  70
    32
  0
VERTEX
  8
0
  5
DF8D
 10
-85.0207
 20
305.454
 30
-6.77999e-14
  70
    32
  0
VERTEX
  8
0
  5
DF8E
 10
-85.0143
 20
305.377
 30
-6.77830e-14
  70
    32
  0
VERTEX
  8
0
  5
DF8F
 10
-85.0091
 20
305.301
 30
-6.77663e-14
  70
    32
  0
VERTEX
  8
0
  5
DF90
 10
-85.0051
 20
305.225
 30
-6.77496e-14
  70
    32
  0
VERTEX
  8
0
  5
DF91
 10
-85.0022
 20
305.150
 30
-6.77329e-14
  70
    32
  0
VERTEX
  8
0
  5
DF92
 10
-85.0006
 20
305.075
 30
-6.77164e-14
  70
    32
  0
VERTEX
  8
0
  5
DF93
 10
-85.0000
 20
305.000
 30
-6.77000e-14
  70
    32
  0
SEQEND
  8
0
  5
DF94
  0
LINE
  5
DAF6
  8
0
  6
CONTINUOUS
 62
     3
 10
-90.0000000000013642
 20
300.0
 30
-0.0000000000000666
 11
-100.0000000000008953
 21
300.0
 31
-0.0000000000000666
210
0.0
220
1.0
230
-0.0000000000000002
  0
LINE
  5
DAF7
  8
0
  6
CONTINUOUS
 62
     3
 10
-100.0000000000006963
 20
310.0
 30
-0.0000000000000688
 11
-90.0000000000011511
 21
310.0
 31
-0.0000000000000688
210
0.0
220
1.0
230
-0.0000000000000002
  0
POLYLINE
  8
0
  5
DF95
  62
3
  66
     1
 10
0.000000
 20
0.000000
 30
0.000000
  70
     8
  0
VERTEX
  8
0
  5
DF96
 10
90.0000
 20
300.000
 30
-6.66000e-14
  70
    32
  0
VERTEX
  8
0
  5
DF97
 10
89.9253
 20
300.001
 30
-6.66001e-14
  70
    32
  0
VERTEX
  8
0
  5
DF98
 10
89.8502
 20
300.002
 30
-6.66005e-14
  70
    32
  0
VERTEX
  8
0
  5
DF99
 10
89.7747
 20
300.005
 30
-6.66011e-14
  70
    32
  0
VERTEX
  8
0
  5
DF9A
 10
89.6988
 20
300.009
 30
-6.66020e-14
  70
    32
  0
VERTEX
  8
0
  5
DF9B
 10
89.6226
 20
300.014
 30
-6.66031e-14
  70
    32
  0
VERTEX
  8
0
  5
DF9C
 10
89.5459
 20
300.021
 30
-6.66045e-14
  70
    32
  0
VERTEX
  8
0
  5
DF9D
 10
89.4690
 20
300.028
 30
-6.66062e-14
  70
    32
  0
VERTEX
  8
0
  5
DF9E
 10
89.3918
 20
300.037
 30
-6.66082e-14
  70
    32
  0
VERTEX
  8
0
  5
DF9F
 10
89.3142
 20
300.047
 30
-6.66104e-14
  70
    32
  0
VERTEX
  8
0
  5
DFA0
 10
89.2365
 20
300.059
 30
-6.66129e-14
  70
    32
  0
VERTEX
  8
0
  5
DFA1
 10
89.1585
 20
300.071
 30
-6.66157e-14
  70
    32
  0
VERTEX
  8
0
  5
DFA2
 10
89.0804
 20
300.085
 30
-6.66188e-14
  70
    32
  0
VERTEX
  8
0
  5
DFA3
 10
89.0021
 20
300.101
 30
-6.66221e-14
  70
    32
  0
VERTEX
  8
0
  5
DFA4
 10
88.9237
 20
300.117
 30
-6.66258e-14
  70
    32
  0
VERTEX
  8
0
  5
DFA5
 10
88.8452
 20
300.135
 30
-6.66297e-14
  70
    32
  0
VERTEX
  8
0
  5
DFA6
 10
88.7666
 20
300.155
 30
-6.66340e-14
  70
    32
  0
VERTEX
  8
0
  5
DFA7
 10
88.6881
 20
300.175
 30
-6.66385e-14
  70
    32
  0
VERTEX
  8
0
  5
DFA8
 10
88.6095
 20
300.197
 30
-6.66434e-14
  70
    32
  0
VERTEX
  8
0
  5
DFA9
 10
88.5309
 20
300.221
 30
-6.66486e-14
  70
    32
  0
VERTEX
  8
0
  5
DFAA
 10
88.4525
 20
300.246
 30
-6.66540e-14
  70
    32
  0
VERTEX
  8
0
  5
DFAB
 10
88.3741
 20
300.272
 30
-6.66598e-14
  70
    32
  0
VERTEX
  8
0
  5
DFAC
 10
88.2959
 20
300.299
 30
-6.66659e-14
  70
    32
  0
VERTEX
  8
0
  5
DFAD
 10
88.2179
 20
300.328
 30
-6.66722e-14
  70
    32
  0
VERTEX
  8
0
  5
DFAE
 10
88.1401
 20
300.359
 30
-6.66789e-14
  70
    32
  0
VERTEX
  8
0
  5
DFAF
 10
88.0625
 20
300.391
 30
-6.66859e-14
  70
    32
  0
VERTEX
  8
0
  5
DFB0
 10
87.9853
 20
300.424
 30
-6.66933e-14
  70
    32
  0
VERTEX
  8
0
  5
DFB1
 10
87.9084
 20
300.459
 30
-6.67009e-14
  70
    32
  0
VERTEX
  8
0
  5
DFB2
 10
87.8318
 20
300.495
 30
-6.67088e-14
  70
    32
  0
VERTEX
  8
0
  5
DFB3
 10
87.7556
 20
300.532
 30
-6.67170e-14
  70
    32
  0
VERTEX
  8
0
  5
DFB4
 10
87.6799
 20
300.571
 30
-6.67256e-14
  70
    32
  0
VERTEX
  8
0
  5
DFB5
 10
87.6047
 20
300.611
 30
-6.67344e-14
  70
    32
  0
VERTEX
  8
0
  5
DFB6
 10
87.5299
 20
300.653
 30
-6.67436e-14
  70
    32
  0
VERTEX
  8
0
  5
DFB7
 10
87.4558
 20
300.696
 30
-6.67531e-14
  70
    32
  0
VERTEX
  8
0
  5
DFB8
 10
87.3822
 20
300.740
 30
-6.67628e-14
  70
    32
  0
VERTEX
  8
0
  5
DFB9
 10
87.3092
 20
300.786
 30
-6.67729e-14
  70
    32
  0
VERTEX
  8
0
  5
DFBA
 10
87.2369
 20
300.833
 30
-6.67832e-14
  70
    32
  0
VERTEX
  8
0
  5
DFBB
 10
87.1653
 20
300.881
 30
-6.67939e-14
  70
    32
  0
VERTEX
  8
0
  5
DFBC
 10
87.0945
 20
300.931
 30
-6.68048e-14
  70
    32
  0
VERTEX
  8
0
  5
DFBD
 10
87.0244
 20
300.982
 30
-6.68160e-14
  70
    32
  0
VERTEX
  8
0
  5
DFBE
 10
86.9551
 20
301.034
 30
-6.68275e-14
  70
    32
  0
VERTEX
  8
0
  5
DFBF
 10
86.8866
 20
301.088
 30
-6.68393e-14
  70
    32
  0
VERTEX
  8
0
  5
DFC0
 10
86.8191
 20
301.142
 30
-6.68513e-14
  70
    32
  0
VERTEX
  8
0
  5
DFC1
 10
86.7524
 20
301.198
 30
-6.68636e-14
  70
    32
  0
VERTEX
  8
0
  5
DFC2
 10
86.6867
 20
301.255
 30
-6.68762e-14
  70
    32
  0
VERTEX
  8
0
  5
DFC3
 10
86.6219
 20
301.314
 30
-6.68890e-14
  70
    32
  0
VERTEX
  8
0
  5
DFC4
 10
86.5582
 20
301.373
 30
-6.69021e-14
  70
    32
  0
VERTEX
  8
0
  5
DFC5
 10
86.4954
 20
301.434
 30
-6.69154e-14
  70
    32
  0
VERTEX
  8
0
  5
DFC6
 10
86.4338
 20
301.495
 30
-6.69290e-14
  70
    32
  0
VERTEX
  8
0
  5
DFC7
 10
86.3732
 20
301.558
 30
-6.69428e-14
  70
    32
  0
VERTEX
  8
0
  5
DFC8
 10
86.3137
 20
301.622
 30
-6.69568e-14
  70
    32
  0
VERTEX
  8
0
  5
DFC9
 10
86.2554
 20
301.687
 30
-6.69711e-14
  70
    32
  0
VERTEX
  8
0
  5
DFCA
 10
86.1983
 20
301.752
 30
-6.69855e-14
  70
    32
  0
VERTEX
  8
0
  5
DFCB
 10
86.1423
 20
301.819
 30
-6.70002e-14
  70
    32
  0
VERTEX
  8
0
  5
DFCC
 10
86.0876
 20
301.887
 30
-6.70151e-14
  70
    32
  0
VERTEX
  8
0
  5
DFCD
 10
86.0341
 20
301.955
 30
-6.70301e-14
  70
    32
  0
VERTEX
  8
0
  5
DFCE
 10
85.9818
 20
302.024
 30
-6.70454e-14
  70
    32
  0
VERTEX
  8
0
  5
DFCF
 10
85.9309
 20
302.094
 30
-6.70608e-14
  70
    32
  0
VERTEX
  8
0
  5
DFD0
 10
85.8812
 20
302.165
 30
-6.70764e-14
  70
    32
  0
VERTEX
  8
0
  5
DFD1
 10
85.8328
 20
302.237
 30
-6.70921e-14
  70
    32
  0
VERTEX
  8
0
  5
DFD2
 10
85.7858
 20
302.309
 30
-6.71080e-14
  70
    32
  0
VERTEX
  8
0
  5
DFD3
 10
85.7401
 20
302.382
 30
-6.71241e-14
  70
    32
  0
VERTEX
  8
0
  5
DFD4
 10
85.6957
 20
302.456
 30
-6.71403e-14
  70
    32
  0
VERTEX
  8
0
  5
DFD5
 10
85.6527
 20
302.530
 30
-6.71566e-14
  70
    32
  0
VERTEX
  8
0
  5
DFD6
 10
85.6111
 20
302.605
 30
-6.71730e-14
  70
    32
  0
VERTEX
  8
0
  5
DFD7
 10
85.5709
 20
302.680
 30
-6.71896e-14
  70
    32
  0
VERTEX
  8
0
  5
DFD8
 10
85.5320
 20
302.756
 30
-6.72062e-14
  70
    32
  0
VERTEX
  8
0
  5
DFD9
 10
85.4946
 20
302.832
 30
-6.72230e-14
  70
    32
  0
VERTEX
  8
0
  5
DFDA
 10
85.4585
 20
302.908
 30
-6.72398e-14
  70
    32
  0
VERTEX
  8
0
  5
DFDB
 10
85.4239
 20
302.985
 30
-6.72568e-14
  70
    32
  0
VERTEX
  8
0
  5
DFDC
 10
85.3906
 20
303.063
 30
-6.72738e-14
  70
    32
  0
VERTEX
  8
0
  5
DFDD
 10
85.3588
 20
303.140
 30
-6.72908e-14
  70
    32
  0
VERTEX
  8
0
  5
DFDE
 10
85.3284
 20
303.218
 30
-6.73079e-14
  70
    32
  0
VERTEX
  8
0
  5
DFDF
 10
85.2993
 20
303.296
 30
-6.73251e-14
  70
    32
  0
VERTEX
  8
0
  5
DFE0
 10
85.2717
 20
303.374
 30
-6.73423e-14
  70
    32
  0
VERTEX
  8
0
  5
DFE1
 10
85.2455
 20
303.452
 30
-6.73595e-14
  70
    32
  0
VERTEX
  8
0
  5
DFE2
 10
85.2207
 20
303.531
 30
-6.73768e-14
  70
    32
  0
VERTEX
  8
0
  5
DFE3
 10
85.1972
 20
303.609
 30
-6.73941e-14
  70
    32
  0
VERTEX
  8
0
  5
DFE4
 10
85.1752
 20
303.688
 30
-6.74114e-14
  70
    32
  0
VERTEX
  8
0
  5
DFE5
 10
85.1545
 20
303.767
 30
-6.74287e-14
  70
    32
  0
VERTEX
  8
0
  5
DFE6
 10
85.1352
 20
303.845
 30
-6.74459e-14
  70
    32
  0
VERTEX
  8
0
  5
DFE7
 10
85.1172
 20
303.924
 30
-6.74632e-14
  70
    32
  0
VERTEX
  8
0
  5
DFE8
 10
85.1006
 20
304.002
 30
-6.74805e-14
  70
    32
  0
VERTEX
  8
0
  5
DFE9
 10
85.0853
 20
304.080
 30
-6.74977e-14
  70
    32
  0
VERTEX
  8
0
  5
DFEA
 10
85.0713
 20
304.159
 30
-6.75149e-14
  70
    32
  0
VERTEX
  8
0
  5
DFEB
 10
85.0586
 20
304.237
 30
-6.75320e-14
  70
    32
  0
VERTEX
  8
0
  5
DFEC
 10
85.0472
 20
304.314
 30
-6.75491e-14
  70
    32
  0
VERTEX
  8
0
  5
DFED
 10
85.0371
 20
304.392
 30
-6.75662e-14
  70
    32
  0
VERTEX
  8
0
  5
DFEE
 10
85.0283
 20
304.469
 30
-6.75832e-14
  70
    32
  0
VERTEX
  8
0
  5
DFEF
 10
85.0207
 20
304.546
 30
-6.76001e-14
  70
    32
  0
VERTEX
  8
0
  5
DFF0
 10
85.0143
 20
304.623
 30
-6.76170e-14
  70
    32
  0
VERTEX
  8
0
  5
DFF1
 10
85.0091
 20
304.699
 30
-6.76337e-14
  70
    32
  0
VERTEX
  8
0
  5
DFF2
 10
85.0051
 20
304.775
 30
-6.76504e-14
  70
    32
  0
VERTEX
  8
0
  5
DFF3
 10
85.0022
 20
304.850
 30
-6.76671e-14
  70
    32
  0
VERTEX
  8
0
  5
DFF4
 10
85.0006
 20
304.925
 30
-6.76836e-14
  70
    32
  0
VERTEX
  8
0
  5
DFF5
 10
85.0000
 20
305.000
 30
-6.77000e-14
  70
    32
  0
SEQEND
  8
0
  5
DFF6
  0
POLYLINE
  8
0
  5
DFF7
  62
3
  66
     1
 10
0.000000
 20
0.000000
 30
0.000000
  70
     8
  0
VERTEX
  8
0
  5
DFF8
 10
105.000
 20
305.000
 30
-6.77000e-14
  70
    32
  0
VERTEX
  8
0
  5
DFF9
 10
104.999
 20
304.925
 30
-6.76836e-14
  70
    32
  0
VERTEX
  8
0
  5
DFFA
 10
104.998
 20
304.850
 30
-6.76671e-14
  70
    32
  0
VERTEX
  8
0
  5
DFFB
 10
104.995
 20
304.775
 30
-6.76504e-14
  70
    32
  0
VERTEX
  8
0
  5
DFFC
 10
104.991
 20
304.699
 30
-6.76337e-14
  70
    32
  0
VERTEX
  8
0
  5
DFFD
 10
104.986
 20
304.623
 30
-6.76170e-14
  70
    32
  0
VERTEX
  8
0
  5
DFFE
 10
104.979
 20
304.546
 30
-6.76001e-14
  70
    32
  0
VERTEX
  8
0
  5
DFFF
 10
104.972
 20
304.469
 30
-6.75832e-14
  70
    32
  0
VERTEX
  8
0
  5
E000
 10
104.963
 20
304.392
 30
-6.75662e-14
  70
    32
  0
VERTEX
  8
0
  5
E001
 10
104.953
 20
304.314
 30
-6.75491e-14
  70
    32
  0
VERTEX
  8
0
  5
E002
 10
104.941
 20
304.237
 30
-6.75320e-14
  70
    32
  0
VERTEX
  8
0
  5
E003
 10
104.929
 20
304.159
 30
-6.75149e-14
  70
    32
  0
VERTEX
  8
0
  5
E004
 10
104.915
 20
304.080
 30
-6.74977e-14
  70
    32
  0
VERTEX
  8
0
  5
E005
 10
104.899
 20
304.002
 30
-6.74805e-14
  70
    32
  0
VERTEX
  8
0
  5
E006
 10
104.883
 20
303.924
 30
-6.74632e-14
  70
    32
  0
VERTEX
  8
0
  5
E007
 10
104.865
 20
303.845
 30
-6.74459e-14
  70
    32
  0
VERTEX
  8
0
  5
E008
 10
104.845
 20
303.767
 30
-6.74287e-14
  70
    32
  0
VERTEX
  8
0
  5
E009
 10
104.825
 20
303.688
 30
-6.74114e-14
  70
    32
  0
VERTEX
  8
0
  5
E00A
 10
104.803
 20
303.609
 30
-6.73941e-14
  70
    32
  0
VERTEX
  8
0
  5
E00B
 10
104.779
 20
303.531
 30
-6.73768e-14
  70
    32
  0
VERTEX
  8
0
  5
E00C
 10
104.754
 20
303.452
 30
-6.73595e-14
  70
    32
  0
VERTEX
  8
0
  5
E00D
 10
104.728
 20
303.374
 30
-6.73423e-14
  70
    32
  0
VERTEX
  8
0
  5
E00E
 10
104.701
 20
303.296
 30
-6.73251e-14
  70
    32
  0
VERTEX
  8
0
  5
E00F
 10
104.672
 20
303.218
 30
-6.73079e-14
  70
    32
  0
VERTEX
  8
0
  5
E010
 10
104.641
 20
303.140
 30
-6.72908e-14
  70
    32
  0
VERTEX
  8
0
  5
E011
 10
104.609
 20
303.063
 30
-6.72738e-14
  70
    32
  0
VERTEX
  8
0
  5
E012
 10
104.576
 20
302.985
 30
-6.72568e-14
  70
    32
  0
VERTEX
  8
0
  5
E013
 10
104.541
 20
302.908
 30
-6.72398e-14
  70
    32
  0
VERTEX
  8
0
  5
E014
 10
104.505
 20
302.832
 30
-6.72230e-14
  70
    32
  0
VERTEX
  8
0
  5
E015
 10
104.468
 20
302.756
 30
-6.72062e-14
  70
    32
  0
VERTEX
  8
0
  5
E016
 10
104.429
 20
302.680
 30
-6.71896e-14
  70
    32
  0
VERTEX
  8
0
  5
E017
 10
104.389
 20
302.605
 30
-6.71730e-14
  70
    32
  0
VERTEX
  8
0
  5
E018
 10
104.347
 20
302.530
 30
-6.71566e-14
  70
    32
  0
VERTEX
  8
0
  5
E019
 10
104.304
 20
302.456
 30
-6.71403e-14
  70
    32
  0
VERTEX
  8
0
  5
E01A
 10
104.260
 20
302.382
 30
-6.71241e-14
  70
    32
  0
VERTEX
  8
0
  5
E01B
 10
104.214
 20
302.309
 30
-6.71080e-14
  70
    32
  0
VERTEX
  8
0
  5
E01C
 10
104.167
 20
302.237
 30
-6.70921e-14
  70
    32
  0
VERTEX
  8
0
  5
E01D
 10
104.119
 20
302.165
 30
-6.70764e-14
  70
    32
  0
VERTEX
  8
0
  5
E01E
 10
104.069
 20
302.094
 30
-6.70608e-14
  70
    32
  0
VERTEX
  8
0
  5
E01F
 10
104.018
 20
302.024
 30
-6.70454e-14
  70
    32
  0
VERTEX
  8
0
  5
E020
 10
103.966
 20
301.955
 30
-6.70301e-14
  70
    32
  0
VERTEX
  8
0
  5
E021
 10
103.912
 20
301.887
 30
-6.70151e-14
  70
    32
  0
VERTEX
  8
0
  5
E022
 10
103.858
 20
301.819
 30
-6.70002e-14
  70
    32
  0
VERTEX
  8
0
  5
E023
 10
103.802
 20
301.752
 30
-6.69855e-14
  70
    32
  0
VERTEX
  8
0
  5
E024
 10
103.745
 20
301.687
 30
-6.69711e-14
  70
    32
  0
VERTEX
  8
0
  5
E025
 10
103.686
 20
301.622
 30
-6.69568e-14
  70
    32
  0
VERTEX
  8
0
  5
E026
 10
103.627
 20
301.558
 30
-6.69428e-14
  70
    32
  0
VERTEX
  8
0
  5
E027
 10
103.566
 20
301.495
 30
-6.69290e-14
  70
    32
  0
VERTEX
  8
0
  5
E028
 10
103.505
 20
301.434
 30
-6.69154e-14
  70
    32
  0
VERTEX
  8
0
  5
E029
 10
103.442
 20
301.373
 30
-6.69021e-14
  70
    32
  0
VERTEX
  8
0
  5
E02A
 10
103.378
 20
301.314
 30
-6.68890e-14
  70
    32
  0
VERTEX
  8
0
  5
E02B
 10
103.313
 20
301.255
 30
-6.68762e-14
  70
    32
  0
VERTEX
  8
0
  5
E02C
 10
103.248
 20
301.198
 30
-6.68636e-14
  70
    32
  0
VERTEX
  8
0
  5
E02D
 10
103.181
 20
301.142
 30
-6.68513e-14
  70
    32
  0
VERTEX
  8
0
  5
E02E
 10
103.113
 20
301.088
 30
-6.68393e-14
  70
    32
  0
VERTEX
  8
0
  5
E02F
 10
103.045
 20
301.034
 30
-6.68275e-14
  70
    32
  0
VERTEX
  8
0
  5
E030
 10
102.976
 20
300.982
 30
-6.68160e-14
  70
    32
  0
VERTEX
  8
0
  5
E031
 10
102.906
 20
300.931
 30
-6.68048e-14
  70
    32
  0
VERTEX
  8
0
  5
E032
 10
102.835
 20
300.881
 30
-6.67939e-14
  70
    32
  0
VERTEX
  8
0
  5
E033
 10
102.763
 20
300.833
 30
-6.67832e-14
  70
    32
  0
VERTEX
  8
0
  5
E034
 10
102.691
 20
300.786
 30
-6.67729e-14
  70
    32
  0
VERTEX
  8
0
  5
E035
 10
102.618
 20
300.740
 30
-6.67628e-14
  70
    32
  0
VERTEX
  8
0
  5
E036
 10
102.544
 20
300.696
 30
-6.67531e-14
  70
    32
  0
VERTEX
  8
0
  5
E037
 10
102.470
 20
300.653
 30
-6.67436e-14
  70
    32
  0
VERTEX
  8
0
  5
E038
 10
102.395
 20
300.611
 30
-6.67344e-14
  70
    32
  0
VERTEX
  8
0
  5
E039
 10
102.320
 20
300.571
 30
-6.67256e-14
  70
    32
  0
VERTEX
  8
0
  5
E03A
 10
102.244
 20
300.532
 30
-6.67170e-14
  70
    32
  0
VERTEX
  8
0
  5
E03B
 10
102.168
 20
300.495
 30
-6.67088e-14
  70
    32
  0
VERTEX
  8
0
  5
E03C
 10
102.092
 20
300.459
 30
-6.67009e-14
  70
    32
  0
VERTEX
  8
0
  5
E03D
 10
102.015
 20
300.424
 30
-6.66933e-14
  70
    32
  0
VERTEX
  8
0
  5
E03E
 10
101.937
 20
300.391
 30
-6.66859e-14
  70
    32
  0
VERTEX
  8
0
  5
E03F
 10
101.860
 20
300.359
 30
-6.66789e-14
  70
    32
  0
VERTEX
  8
0
  5
E040
 10
101.782
 20
300.328
 30
-6.66722e-14
  70
    32
  0
VERTEX
  8
0
  5
E041
 10
101.704
 20
300.299
 30
-6.66659e-14
  70
    32
  0
VERTEX
  8
0
  5
E042
 10
101.626
 20
300.272
 30
-6.66598e-14
  70
    32
  0
VERTEX
  8
0
  5
E043
 10
101.548
 20
300.246
 30
-6.66540e-14
  70
    32
  0
VERTEX
  8
0
  5
E044
 10
101.469
 20
300.221
 30
-6.66486e-14
  70
    32
  0
VERTEX
  8
0
  5
E045
 10
101.391
 20
300.197
 30
-6.66434e-14
  70
    32
  0
VERTEX
  8
0
  5
E046
 10
101.312
 20
300.175
 30
-6.66385e-14
  70
    32
  0
VERTEX
  8
0
  5
E047
 10
101.233
 20
300.155
 30
-6.66340e-14
  70
    32
  0
VERTEX
  8
0
  5
E048
 10
101.155
 20
300.135
 30
-6.66297e-14
  70
    32
  0
VERTEX
  8
0
  5
E049
 10
101.076
 20
300.117
 30
-6.66258e-14
  70
    32
  0
VERTEX
  8
0
  5
E04A
 10
100.998
 20
300.101
 30
-6.66221e-14
  70
    32
  0
VERTEX
  8
0
  5
E04B
 10
100.920
 20
300.085
 30
-6.66188e-14
  70
    32
  0
VERTEX
  8
0
  5
E04C
 10
100.841
 20
300.071
 30
-6.66157e-14
  70
    32
  0
VERTEX
  8
0
  5
E04D
 10
100.763
 20
300.059
 30
-6.66129e-14
  70
    32
  0
VERTEX
  8
0
  5
E04E
 10
100.686
 20
300.047
 30
-6.66104e-14
  70
    32
  0
VERTEX
  8
0
  5
E04F
 10
100.608
 20
300.037
 30
-6.66082e-14
  70
    32
  0
VERTEX
  8
0
  5
E050
 10
100.531
 20
300.028
 30
-6.66062e-14
  70
    32
  0
VERTEX
  8
0
  5
E051
 10
100.454
 20
300.021
 30
-6.66045e-14
  70
    32
  0
VERTEX
  8
0
  5
E052
 10
100.377
 20
300.014
 30
-6.66031e-14
  70
    32
  0
VERTEX
  8
0
  5
E053
 10
100.301
 20
300.009
 30
-6.66020e-14
  70
    32
  0
VERTEX
  8
0
  5
E054
 10
100.225
 20
300.005
 30
-6.66011e-14
  70
    32
  0
VERTEX
  8
0
  5
E055
 10
100.150
 20
300.002
 30
-6.66005e-14
  70
    32
  0
VERTEX
  8
0
  5
E056
 10
100.075
 20
300.001
 30
-6.66001e-14
  70
    32
  0
VERTEX
  8
0
  5
E057
 10
100.000
 20
300.000
 30
-6.66000e-14
  70
    32
  0
SEQEND
  8
0
  5
E058
  0
POLYLINE
  8
0
  5
E059
  62
3
  66
     1
 10
0.000000
 20
0.000000
 30
0.000000
  70
     8
  0
VERTEX
  8
0
  5
E05A
 10
100.000
 20
310.000
 30
-6.88000e-14
  70
    32
  0
VERTEX
  8
0
  5
E05B
 10
100.075
 20
309.999
 30
-6.87999e-14
  70
    32
  0
VERTEX
  8
0
  5
E05C
 10
100.150
 20
309.998
 30
-6.87995e-14
  70
    32
  0
VERTEX
  8
0
  5
E05D
 10
100.225
 20
309.995
 30
-6.87989e-14
  70
    32
  0
VERTEX
  8
0
  5
E05E
 10
100.301
 20
309.991
 30
-6.87980e-14
  70
    32
  0
VERTEX
  8
0
  5
E05F
 10
100.377
 20
309.986
 30
-6.87969e-14
  70
    32
  0
VERTEX
  8
0
  5
E060
 10
100.454
 20
309.979
 30
-6.87955e-14
  70
    32
  0
VERTEX
  8
0
  5
E061
 10
100.531
 20
309.972
 30
-6.87938e-14
  70
    32
  0
VERTEX
  8
0
  5
E062
 10
100.608
 20
309.963
 30
-6.87918e-14
  70
    32
  0
VERTEX
  8
0
  5
E063
 10
100.686
 20
309.953
 30
-6.87896e-14
  70
    32
  0
VERTEX
  8
0
  5
E064
 10
100.763
 20
309.941
 30
-6.87871e-14
  70
    32
  0
VERTEX
  8
0
  5
E065
 10
100.841
 20
309.929
 30
-6.87843e-14
  70
    32
  0
VERTEX
  8
0
  5
E066
 10
100.920
 20
309.915
 30
-6.87812e-14
  70
    32
  0
VERTEX
  8
0
  5
E067
 10
100.998
 20
309.899
 30
-6.87779e-14
  70
    32
  0
VERTEX
  8
0
  5
E068
 10
101.076
 20
309.883
 30
-6.87742e-14
  70
    32
  0
VERTEX
  8
0
  5
E069
 10
101.155
 20
309.865
 30
-6.87703e-14
  70
    32
  0
VERTEX
  8
0
  5
E06A
 10
101.233
 20
309.845
 30
-6.87660e-14
  70
    32
  0
VERTEX
  8
0
  5
E06B
 10
101.312
 20
309.825
 30
-6.87615e-14
  70
    32
  0
VERTEX
  8
0
  5
E06C
 10
101.391
 20
309.803
 30
-6.87566e-14
  70
    32
  0
VERTEX
  8
0
  5
E06D
 10
101.469
 20
309.779
 30
-6.87514e-14
  70
    32
  0
VERTEX
  8
0
  5
E06E
 10
101.548
 20
309.754
 30
-6.87460e-14
  70
    32
  0
VERTEX
  8
0
  5
E06F
 10
101.626
 20
309.728
 30
-6.87402e-14
  70
    32
  0
VERTEX
  8
0
  5
E070
 10
101.704
 20
309.701
 30
-6.87341e-14
  70
    32
  0
VERTEX
  8
0
  5
E071
 10
101.782
 20
309.672
 30
-6.87278e-14
  70
    32
  0
VERTEX
  8
0
  5
E072
 10
101.860
 20
309.641
 30
-6.87211e-14
  70
    32
  0
VERTEX
  8
0
  5
E073
 10
101.937
 20
309.609
 30
-6.87141e-14
  70
    32
  0
VERTEX
  8
0
  5
E074
 10
102.015
 20
309.576
 30
-6.87067e-14
  70
    32
  0
VERTEX
  8
0
  5
E075
 10
102.092
 20
309.541
 30
-6.86991e-14
  70
    32
  0
VERTEX
  8
0
  5
E076
 10
102.168
 20
309.505
 30
-6.86912e-14
  70
    32
  0
VERTEX
  8
0
  5
E077
 10
102.244
 20
309.468
 30
-6.86830e-14
  70
    32
  0
VERTEX
  8
0
  5
E078
 10
102.320
 20
309.429
 30
-6.86744e-14
  70
    32
  0
VERTEX
  8
0
  5
E079
 10
102.395
 20
309.389
 30
-6.86656e-14
  70
    32
  0
VERTEX
  8
0
  5
E07A
 10
102.470
 20
309.347
 30
-6.86564e-14
  70
    32
  0
VERTEX
  8
0
  5
E07B
 10
102.544
 20
309.304
 30
-6.86469e-14
  70
    32
  0
VERTEX
  8
0
  5
E07C
 10
102.618
 20
309.260
 30
-6.86372e-14
  70
    32
  0
VERTEX
  8
0
  5
E07D
 10
102.691
 20
309.214
 30
-6.86271e-14
  70
    32
  0
VERTEX
  8
0
  5
E07E
 10
102.763
 20
309.167
 30
-6.86168e-14
  70
    32
  0
VERTEX
  8
0
  5
E07F
 10
102.835
 20
309.119
 30
-6.86061e-14
  70
    32
  0
VERTEX
  8
0
  5
E080
 10
102.906
 20
309.069
 30
-6.85952e-14
  70
    32
  0
VERTEX
  8
0
  5
E081
 10
102.976
 20
309.018
 30
-6.85840e-14
  70
    32
  0
VERTEX
  8
0
  5
E082
 10
103.045
 20
308.966
 30
-6.85725e-14
  70
    32
  0
VERTEX
  8
0
  5
E083
 10
103.113
 20
308.912
 30
-6.85607e-14
  70
    32
  0
VERTEX
  8
0
  5
E084
 10
103.181
 20
308.858
 30
-6.85487e-14
  70
    32
  0
VERTEX
  8
0
  5
E085
 10
103.248
 20
308.802
 30
-6.85364e-14
  70
    32
  0
VERTEX
  8
0
  5
E086
 10
103.313
 20
308.745
 30
-6.85238e-14
  70
    32
  0
VERTEX
  8
0
  5
E087
 10
103.378
 20
308.686
 30
-6.85110e-14
  70
    32
  0
VERTEX
  8
0
  5
E088
 10
103.442
 20
308.627
 30
-6.84979e-14
  70
    32
  0
VERTEX
  8
0
  5
E089
 10
103.505
 20
308.566
 30
-6.84846e-14
  70
    32
  0
VERTEX
  8
0
  5
E08A
 10
103.566
 20
308.505
 30
-6.84710e-14
  70
    32
  0
VERTEX
  8
0
  5
E08B
 10
103.627
 20
308.442
 30
-6.84572e-14
  70
    32
  0
VERTEX
  8
0
  5
E08C
 10
103.686
 20
308.378
 30
-6.84432e-14
  70
    32
  0
VERTEX
  8
0
  5
E08D
 10
103.745
 20
308.313
 30
-6.84289e-14
  70
    32
  0
VERTEX
  8
0
  5
E08E
 10
103.802
 20
308.248
 30
-6.84145e-14
  70
    32
  0
VERTEX
  8
0
  5
E08F
 10
103.858
 20
308.181
 30
-6.83998e-14
  70
    32
  0
VERTEX
  8
0
  5
E090
 10
103.912
 20
308.113
 30
-6.83849e-14
  70
    32
  0
VERTEX
  8
0
  5
E091
 10
103.966
 20
308.045
 30
-6.83699e-14
  70
    32
  0
VERTEX
  8
0
  5
E092
 10
104.018
 20
307.976
 30
-6.83546e-14
  70
    32
  0
VERTEX
  8
0
  5
E093
 10
104.069
 20
307.906
 30
-6.83392e-14
  70
    32
  0
VERTEX
  8
0
  5
E094
 10
104.119
 20
307.835
 30
-6.83236e-14
  70
    32
  0
VERTEX
  8
0
  5
E095
 10
104.167
 20
307.763
 30
-6.83079e-14
  70
    32
  0
VERTEX
  8
0
  5
E096
 10
104.214
 20
307.691
 30
-6.82920e-14
  70
    32
  0
VERTEX
  8
0
  5
E097
 10
104.260
 20
307.618
 30
-6.82759e-14
  70
    32
  0
VERTEX
  8
0
  5
E098
 10
104.304
 20
307.544
 30
-6.82597e-14
  70
    32
  0
VERTEX
  8
0
  5
E099
 10
104.347
 20
307.470
 30
-6.82434e-14
  70
    32
  0
VERTEX
  8
0
  5
E09A
 10
104.389
 20
307.395
 30
-6.82270e-14
  70
    32
  0
VERTEX
  8
0
  5
E09B
 10
104.429
 20
307.320
 30
-6.82104e-14
  70
    32
  0
VERTEX
  8
0
  5
E09C
 10
104.468
 20
307.244
 30
-6.81938e-14
  70
    32
  0
VERTEX
  8
0
  5
E09D
 10
104.505
 20
307.168
 30
-6.81770e-14
  70
    32
  0
VERTEX
  8
0
  5
E09E
 10
104.541
 20
307.092
 30
-6.81602e-14
  70
    32
  0
VERTEX
  8
0
  5
E09F
 10
104.576
 20
307.015
 30
-6.81432e-14
  70
    32
  0
VERTEX
  8
0
  5
E0A0
 10
104.609
 20
306.937
 30
-6.81262e-14
  70
    32
  0
VERTEX
  8
0
  5
E0A1
 10
104.641
 20
306.860
 30
-6.81092e-14
  70
    32
  0
VERTEX
  8
0
  5
E0A2
 10
104.672
 20
306.782
 30
-6.80921e-14
  70
    32
  0
VERTEX
  8
0
  5
E0A3
 10
104.701
 20
306.704
 30
-6.80749e-14
  70
    32
  0
VERTEX
  8
0
  5
E0A4
 10
104.728
 20
306.626
 30
-6.80577e-14
  70
    32
  0
VERTEX
  8
0
  5
E0A5
 10
104.754
 20
306.548
 30
-6.80405e-14
  70
    32
  0
VERTEX
  8
0
  5
E0A6
 10
104.779
 20
306.469
 30
-6.80232e-14
  70
    32
  0
VERTEX
  8
0
  5
E0A7
 10
104.803
 20
306.391
 30
-6.80059e-14
  70
    32
  0
VERTEX
  8
0
  5
E0A8
 10
104.825
 20
306.312
 30
-6.79886e-14
  70
    32
  0
VERTEX
  8
0
  5
E0A9
 10
104.845
 20
306.233
 30
-6.79713e-14
  70
    32
  0
VERTEX
  8
0
  5
E0AA
 10
104.865
 20
306.155
 30
-6.79541e-14
  70
    32
  0
VERTEX
  8
0
  5
E0AB
 10
104.883
 20
306.076
 30
-6.79368e-14
  70
    32
  0
VERTEX
  8
0
  5
E0AC
 10
104.899
 20
305.998
 30
-6.79195e-14
  70
    32
  0
VERTEX
  8
0
  5
E0AD
 10
104.915
 20
305.920
 30
-6.79023e-14
  70
    32
  0
VERTEX
  8
0
  5
E0AE
 10
104.929
 20
305.841
 30
-6.78851e-14
  70
    32
  0
VERTEX
  8
0
  5
E0AF
 10
104.941
 20
305.763
 30
-6.78680e-14
  70
    32
  0
VERTEX
  8
0
  5
E0B0
 10
104.953
 20
305.686
 30
-6.78509e-14
  70
    32
  0
VERTEX
  8
0
  5
E0B1
 10
104.963
 20
305.608
 30
-6.78338e-14
  70
    32
  0
VERTEX
  8
0
  5
E0B2
 10
104.972
 20
305.531
 30
-6.78168e-14
  70
    32
  0
VERTEX
  8
0
  5
E0B3
 10
104.979
 20
305.454
 30
-6.77999e-14
  70
    32
  0
VERTEX
  8
0
  5
E0B4
 10
104.986
 20
305.377
 30
-6.77830e-14
  70
    32
  0
VERTEX
  8
0
  5
E0B5
 10
104.991
 20
305.301
 30
-6.77663e-14
  70
    32
  0
VERTEX
  8
0
  5
E0B6
 10
104.995
 20
305.225
 30
-6.77496e-14
  70
    32
  0
VERTEX
  8
0
  5
E0B7
 10
104.998
 20
305.150
 30
-6.77329e-14
  70
    32
  0
VERTEX
  8
0
  5
E0B8
 10
104.999
 20
305.075
 30
-6.77164e-14
  70
    32
  0
VERTEX
  8
0
  5
E0B9
 10
105.000
 20
305.000
 30
-6.77000e-14
  70
    32
  0
SEQEND
  8
0
  5
E0BA
  0
POLYLINE
  8
0
  5
E0BB
  62
3
  66
     1
 10
0.000000
 20
0.000000
 30
0.000000
  70
     8
  0
VERTEX
  8
0
  5
E0BC
 10
85.0000
 20
305.000
 30
-6.77000e-14
  70
    32
  0
VERTEX
  8
0
  5
E0BD
 10
85.0006
 20
305.075
 30
-6.77164e-14
  70
    32
  0
VERTEX
  8
0
  5
E0BE
 10
85.0022
 20
305.150
 30
-6.77329e-14
  70
    32
  0
VERTEX
  8
0
  5
E0BF
 10
85.0051
 20
305.225
 30
-6.77496e-14
  70
    32
  0
VERTEX
  8
0
  5
E0C0
 10
85.0091
 20
305.301
 30
-6.77663e-14
  70
    32
  0
VERTEX
  8
0
  5
E0C1
 10
85.0143
 20
305.377
 30
-6.77830e-14
  70
    32
  0
VERTEX
  8
0
  5
E0C2
 10
85.0207
 20
305.454
 30
-6.77999e-14
  70
    32
  0
VERTEX
  8
0
  5
E0C3
 10
85.0283
 20
305.531
 30
-6.78168e-14
  70
    32
  0
VERTEX
  8
0
  5
E0C4
 10
85.0371
 20
305.608
 30
-6.78338e-14
  70
    32
  0
VERTEX
  8
0
  5
E0C5
 10
85.0472
 20
305.686
 30
-6.78509e-14
  70
    32
  0
VERTEX
  8
0
  5
E0C6
 10
85.0586
 20
305.763
 30
-6.78680e-14
  70
    32
  0
VERTEX
  8
0
  5
E0C7
 10
85.0713
 20
305.841
 30
-6.78851e-14
  70
    32
  0
VERTEX
  8
0
  5
E0C8
 10
85.0853
 20
305.920
 30
-6.79023e-14
  70
    32
  0
VERTEX
  8
0
  5
E0C9
 10
85.1006
 20
305.998
 30
-6.79195e-14
  70
    32
  0
VERTEX
  8
0
  5
E0CA
 10
85.1172
 20
306.076
 30
-6.79368e-14
  70
    32
  0
VERTEX
  8
0
  5
E0CB
 10
85.1352
 20
306.155
 30
-6.79541e-14
  70
    32
  0
VERTEX
  8
0
  5
E0CC
 10
85.1545
 20
306.233
 30
-6.79713e-14
  70
    32
  0
VERTEX
  8
0
  5
E0CD
 10
85.1752
 20
306.312
 30
-6.79886e-14
  70
    32
  0
VERTEX
  8
0
  5
E0CE
 10
85.1972
 20
306.391
 30
-6.80059e-14
  70
    32
  0
VERTEX
  8
0
  5
E0CF
 10
85.2207
 20
306.469
 30
-6.80232e-14
  70
    32
  0
VERTEX
  8
0
  5
E0D0
 10
85.2455
 20
306.548
 30
-6.80405e-14
  70
    32
  0
VERTEX
  8
0
  5
E0D1
 10
85.2717
 20
306.626
 30
-6.80577e-14
  70
    32
  0
VERTEX
  8
0
  5
E0D2
 10
85.2993
 20
306.704
 30
-6.80749e-14
  70
    32
  0
VERTEX
  8
0
  5
E0D3
 10
85.3284
 20
306.782
 30
-6.80921e-14
  70
    32
  0
VERTEX
  8
0
  5
E0D4
 10
85.3588
 20
306.860
 30
-6.81092e-14
  70
    32
  0
VERTEX
  8
0
  5
E0D5
 10
85.3906
 20
306.937
 30
-6.81262e-14
  70
    32
  0
VERTEX
  8
0
  5
E0D6
 10
85.4239
 20
307.015
 30
-6.81432e-14
  70
    32
  0
VERTEX
  8
0
  5
E0D7
 10
85.4585
 20
307.092
 30
-6.81602e-14
  70
    32
  0
VERTEX
  8
0
  5
E0D8
 10
85.4946
 20
307.168
 30
-6.81770e-14
  70
    32
  0
VERTEX
  8
0
  5
E0D9
 10
85.5320
 20
307.244
 30
-6.81938e-14
  70
    32
  0
VERTEX
  8
0
  5
E0DA
 10
85.5709
 20
307.320
 30
-6.82104e-14
  70
    32
  0
VERTEX
  8
0
  5
E0DB
 10
85.6111
 20
307.395
 30
-6.82270e-14
  70
    32
  0
VERTEX
  8
0
  5
E0DC
 10
85.6527
 20
307.470
 30
-6.82434e-14
  70
    32
  0
VERTEX
  8
0
  5
E0DD
 10
85.6957
 20
307.544
 30
-6.82597e-14
  70
    32
  0
VERTEX
  8
0
  5
E0DE
 10
85.7401
 20
307.618
 30
-6.82759e-14
  70
    32
  0
VERTEX
  8
0
  5
E0DF
 10
85.7858
 20
307.691
 30
-6.82920e-14
  70
    32
  0
VERTEX
  8
0
  5
E0E0
 10
85.8328
 20
307.763
 30
-6.83079e-14
  70
    32
  0
VERTEX
  8
0
  5
E0E1
 10
85.8812
 20
307.835
 30
-6.83236e-14
  70
    32
  0
VERTEX
  8
0
  5
E0E2
 10
85.9309
 20
307.906
 30
-6.83392e-14
  70
    32
  0
VERTEX
  8
0
  5
E0E3
 10
85.9818
 20
307.976
 30
-6.83546e-14
  70
    32
  0
VERTEX
  8
0
  5
E0E4
 10
86.0341
 20
308.045
 30
-6.83699e-14
  70
    32
  0
VERTEX
  8
0
  5
E0E5
 10
86.0876
 20
308.113
 30
-6.83849e-14
  70
    32
  0
VERTEX
  8
0
  5
E0E6
 10
86.1423
 20
308.181
 30
-6.83998e-14
  70
    32
  0
VERTEX
  8
0
  5
E0E7
 10
86.1983
 20
308.248
 30
-6.84145e-14
  70
    32
  0
VERTEX
  8
0
  5
E0E8
 10
86.2554
 20
308.313
 30
-6.84289e-14
  70
    32
  0
VERTEX
  8
0
  5
E0E9
 10
86.3137
 20
308.378
 30
-6.84432e-14
  70
    32
  0
VERTEX
  8
0
  5
E0EA
 10
86.3732
 20
308.442
 30
-6.84572e-14
  70
    32
  0
VERTEX
  8
0
  5
E0EB
 10
86.4338
 20
308.505
 30
-6.84710e-14
  70
    32
  0
VERTEX
  8
0
  5
E0EC
 10
86.4954
 20
308.566
 30
-6.84846e-14
  70
    32
  0
VERTEX
  8
0
  5
E0ED
 10
86.5582
 20
308.627
 30
-6.84979e-14
  70
    32
  0
VERTEX
  8
0
  5
E0EE
 10
86.6219
 20
308.686
 30
-6.85110e-14
  70
    32
  0
VERTEX
  8
0
  5
E0EF
 10
86.6867
 20
308.745
 30
-6.85238e-14
  70
    32
  0
VERTEX
  8
0
  5
E0F0
 10
86.7524
 20
308.802
 30
-6.85364e-14
  70
    32
  0
VERTEX
  8
0
  5
E0F1
 10
86.8191
 20
308.858
 30
-6.85487e-14
  70
    32
  0
VERTEX
  8
0
  5
E0F2
 10
86.8866
 20
308.912
 30
-6.85607e-14
  70
    32
  0
VERTEX
  8
0
  5
E0F3
 10
86.9551
 20
308.966
 30
-6.85725e-14
  70
    32
  0
VERTEX
  8
0
  5
E0F4
 10
87.0244
 20
309.018
 30
-6.85840e-14
  70
    32
  0
VERTEX
  8
0
  5
E0F5
 10
87.0945
 20
309.069
 30
-6.85952e-14
  70
    32
  0
VERTEX
  8
0
  5
E0F6
 10
87.1653
 20
309.119
 30
-6.86061e-14
  70
    32
  0
VERTEX
  8
0
  5
E0F7
 10
87.2369
 20
309.167
 30
-6.86168e-14
  70
    32
  0
VERTEX
  8
0
  5
E0F8
 10
87.3092
 20
309.214
 30
-6.86271e-14
  70
    32
  0
VERTEX
  8
0
  5
E0F9
 10
87.3822
 20
309.260
 30
-6.86372e-14
  70
    32
  0
VERTEX
  8
0
  5
E0FA
 10
87.4558
 20
309.304
 30
-6.86469e-14
  70
    32
  0
VERTEX
  8
0
  5
E0FB
 10
87.5299
 20
309.347
 30
-6.86564e-14
  70
    32
  0
VERTEX
  8
0
  5
E0FC
 10
87.6047
 20
309.389
 30
-6.86656e-14
  70
    32
  0
VERTEX
  8
0
  5
E0FD
 10
87.6799
 20
309.429
 30
-6.86744e-14
  70
    32
  0
VERTEX
  8
0
  5
E0FE
 10
87.7556
 20
309.468
 30
-6.86830e-14
  70
    32
  0
VERTEX
  8
0
  5
E0FF
 10
87.8318
 20
309.505
 30
-6.86912e-14
  70
    32
  0
VERTEX
  8
0
  5
E100
 10
87.9084
 20
309.541
 30
-6.86991e-14
  70
    32
  0
VERTEX
  8
0
  5
E101
 10
87.9853
 20
309.576
 30
-6.87067e-14
  70
    32
  0
VERTEX
  8
0
  5
E102
 10
88.0625
 20
309.609
 30
-6.87141e-14
  70
    32
  0
VERTEX
  8
0
  5
E103
 10
88.1401
 20
309.641
 30
-6.87211e-14
  70
    32
  0
VERTEX
  8
0
  5
E104
 10
88.2179
 20
309.672
 30
-6.87278e-14
  70
    32
  0
VERTEX
  8
0
  5
E105
 10
88.2959
 20
309.701
 30
-6.87341e-14
  70
    32
  0
VERTEX
  8
0
  5
E106
 10
88.3741
 20
309.728
 30
-6.87402e-14
  70
    32
  0
VERTEX
  8
0
  5
E107
 10
88.4525
 20
309.754
 30
-6.87460e-14
  70
    32
  0
VERTEX
  8
0
  5
E108
 10
88.5309
 20
309.779
 30
-6.87514e-14
  70
    32
  0
VERTEX
  8
0
  5
E109
 10
88.6095
 20
309.803
 30
-6.87566e-14
  70
    32
  0
VERTEX
  8
0
  5
E10A
 10
88.6881
 20
309.825
 30
-6.87615e-14
  70
    32
  0
VERTEX
  8
0
  5
E10B
 10
88.7666
 20
309.845
 30
-6.87660e-14
  70
    32
  0
VERTEX
  8
0
  5
E10C
 10
88.8452
 20
309.865
 30
-6.87703e-14
  70
    32
  0
VERTEX
  8
0
  5
E10D
 10
88.9237
 20
309.883
 30
-6.87742e-14
  70
    32
  0
VERTEX
  8
0
  5
E10E
 10
89.0021
 20
309.899
 30
-6.87779e-14
  70
    32
  0
VERTEX
  8
0
  5
E10F
 10
89.0804
 20
309.915
 30
-6.87812e-14
  70
    32
  0
VERTEX
  8
0
  5
E110
 10
89.1585
 20
309.929
 30
-6.87843e-14
  70
    32
  0
VERTEX
  8
0
  5
E111
 10
89.2365
 20
309.941
 30
-6.87871e-14
  70
    32
  0
VERTEX
  8
0
  5
E112
 10
89.3142
 20
309.953
 30
-6.87896e-14
  70
    32
  0
VERTEX
  8
0
  5
E113
 10
89.3918
 20
309.963
 30
-6.87918e-14
  70
    32
  0
VERTEX
  8
0
  5
E114
 10
89.4690
 20
309.972
 30
-6.87938e-14
  70
    32
  0
VERTEX
  8
0
  5
E115
 10
89.5459
 20
309.979
 30
-6.87955e-14
  70
    32
  0
VERTEX
  8
0
  5
E116
 10
89.6226
 20
309.986
 30
-6.87969e-14
  70
    32
  0
VERTEX
  8
0
  5
E117
 10
89.6988
 20
309.991
 30
-6.87980e-14
  70
    32
  0
VERTEX
  8
0
  5
E118
 10
89.7747
 20
309.995
 30
-6.87989e-14
  70
    32
  0
VERTEX
  8
0
  5
E119
 10
89.8502
 20
309.998
 30
-6.87995e-14
  70
    32
  0
VERTEX
  8
0
  5
E11A
 10
89.9253
 20
309.999
 30
-6.87999e-14
  70
    32
  0
VERTEX
  8
0
  5
E11B
 10
90.0000
 20
310.000
 30
-6.88000e-14
  70
    32
  0
SEQEND
  8
0
  5
E11C
  0
LINE
  5
DAFC
  8
0
  6
CONTINUOUS
 62
     3
 10
100.0000000000006963
 20
300.0
 30
-0.0000000000000666
 11
90.0000000000011511
 21
300.0
 31
-0.0000000000000666
210
0.0
220
1.0
230
-0.0000000000000002
  0
LINE
  5
DAFD
  8
0
  6
CONTINUOUS
 62
     3
 10
90.0000000000008953
 20
310.0
 30
-0.0000000000000688
 11
100.0000000000003979
 21
310.0
 31
-0.0000000000000688
210
0.0
220
1.0
230
-0.0000000000000002
  0
ARC
  5
DAFE
  8
0
  6
CONTINUOUS
 62
     3
 10
132.0000000000017906
 20
143.499999999999801
 30
-0.0000000000000319
 40
1.500000000000087
 50
269.9999999999977831
 51
359.9999999999968168
  0
LINE
  5
DAFF
  8
0
  6
CONTINUOUS
 62
     3
 10
132.0000000000017906
 20
141.999999999999801
 30
-0.0000000000000315
 11
-132.0000000000028137
 21
141.9999999999996874
 31
-0.0000000000000315
210
0.0
220
1.0
230
-0.0000000000000002
  0
ARC
  5
DB00
  8
0
  6
CONTINUOUS
 62
     3
 10
132.0000000000032117
 20
143.4999999999996874
 30
0.0
 40
1.4999999999999549
210
0.0
220
-0.0000000000000002
230
-1.0
 50
269.9999999999902229
 51
0.0000000000017162
  0
LINE
  5
DB01
  8
0
  6
CONTINUOUS
 62
     3
 10
133.5000000000015916
 20
319.9999999999998863
 30
-0.0000000000000711
 11
-133.5000000000034106
 21
319.9999999999948272
 31
-0.0000000000000711
210
0.0
220
1.0
230
-0.0000000000000002
  0
LINE
  5
DB02
  8
0
  6
CONTINUOUS
 62
     3
 10
-133.500000000002899
 20
143.499999999999801
 30
-0.0000000000000319
 11
-133.500000000002899
 21
319.9999999999997726
 31
-0.0000000000000711
210
0.0
220
1.0
230
-0.0000000000000002
  0
LINE
  5
DB03
  8
0
  6
CONTINUOUS
 62
     3
 10
133.5000000000017053
 20
143.499999999999801
 30
-0.0000000000000319
 11
133.5000000000015916
 21
319.9999999999997726
 31
-0.0000000000000711
210
0.0
220
1.0
230
-0.0000000000000002
  0
LINE
  5
DB04
  8
0
  6
CONTINUOUS
 62
     3
 10
119.1569219381647997
 20
295.5999999999999091
 30
-0.0000000000000656
 11
110.8430780618342055
 21
295.5999999999999091
 31
-0.0000000000000656
210
0.0
220
1.0
230
-0.0000000000000002
  0
LINE
  5
DB05
  8
0
  6
CONTINUOUS
 62
     3
 10
110.8430780618342055
 20
294.3999999999999204
 30
-0.0000000000000654
 11
119.1569219381647997
 21
294.3999999999999204
 31
-0.0000000000000654
210
0.0
220
1.0
230
-0.0000000000000002
  0
ARC
  5
DB06
  8
0
  6
CONTINUOUS
 62
     3
 10
-114.9999999999995026
 20
294.9999999999998863
 30
0.0
 40
4.2000000000000002
210
0.0
220
-0.0000000000000002
230
-1.0
 50
8.2132107017385092
 51
171.7867892982617946
  0
ARC
  5
DB07
  8
0
  6
CONTINUOUS
 62
     3
 10
-114.9999999999995026
 20
294.9999999999998863
 30
0.0
 40
4.2000000000000002
210
0.0
220
-0.0000000000000002
230
-1.0
 50
188.2132107017376939
 51
351.7867892982616809
  0
ARC
  5
DB08
  8
0
  6
CONTINUOUS
 62
     3
 10
109.9999999999993037
 20
312.9788498428907815
 30
-0.0000000000000695
 40
9.4810336989169901
 50
72.0813610304996928
 51
107.918638969500293
  0
LINE
  5
DB09
  8
0
  6
VERDECKT
 62
     1
 10
48.1327239685572223
 20
0.1743114854954797
 30
0.0
 11
-48.1327239685572223
 21
0.1743114854954797
 31
0.0
210
0.0
220
1.0
230
-0.0000000000000002
  0
ARC
  5
DB0A
  8
0
  6
VERDECKT
 62
     1
 10
-47.9999999999993392
 20
10.1309828287244699
 30
0.0
 40
1.0000000000006599
210
0.0
220
-0.0000000000000002
230
-1.0
 50
179.9999999999994884
 51
184.9999999999961062
  0
ARC
  5
DB0B
  8
0
  6
VERDECKT
 62
     1
 10
47.9999999999993392
 20
10.1309828287244699
 30
0.0
 40
1.0000000000006599
210
0.0
220
-0.0000000000000002
230
-1.0
 50
355.0000000000038085
 51
0.0000000000005216
  0
LINE
  5
DB0C
  8
0
  6
VERDECKT
 62
     1
 10
-49.0
 20
10.1309828287244805
 30
-0.0000000000000022
 11
-49.0
 21
140.0000000000027001
 31
-0.0000000000000311
210
0.0
220
1.0
230
-0.0000000000000002
  0
LINE
  5
DB0D
  8
0
  6
VERDECKT
 62
     1
 10
49.0
 20
10.1309828287244805
 30
-0.0000000000000022
 11
49.0
 21
140.0000000000027001
 31
-0.0000000000000311
210
0.0
220
1.0
230
-0.0000000000000002
  0
LINE
  5
DB0E
  8
0
  6
VERDECKT
 62
     1
 10
-48.1327239685572223
 20
0.1743114854954797
 30
0.0
 11
-48.9961946980917489
 21
10.0438270859768295
 31
-0.0000000000000022
210
0.0
220
1.0
230
-0.0000000000000002
  0
LINE
  5
DB0F
  8
0
  6
VERDECKT
 62
     1
 10
48.1327239685572223
 20
0.1743114854954797
 30
0.0
 11
48.9961946980917489
 21
10.0438270859768295
 31
-0.0000000000000022
210
0.0
220
1.0
230
-0.0000000000000002
  0
LINE
  5
DB10
  8
0
  6
VERDECKT
 62
     1
 10
48.1327239685572223
 20
0.1743114854954797
 30
0.0
 11
50.125113364740848
 21
0.0000000000001705
 31
0.0
210
0.0
220
1.0
230
-0.0000000000000002
  0
LINE
  5
DB11
  8
0
  6
VERDECKT
 62
     1
 10
-48.1327239685572223
 20
0.1743114854954797
 30
0.0
 11
-50.125113364740848
 21
0.0000000000001705
 31
0.0
210
0.0
220
1.0
230
-0.0000000000000002
  0
LINE
  5
DB12
  8
0
  6
VERDECKT
 62
     1
 10
-115.9999999999992042
 20
299.9999999999998863
 30
-0.0000000000000666
 11
-130.9999999999992042
 21
299.9999999999998863
 31
-0.0000000000000666
210
0.0
220
1.0
230
-0.0000000000000002
  0
LINE
  5
DB13
  8
0
  6
VERDECKT
 62
     1
 10
-115.9999999999992042
 20
299.9999999999998863
 30
-0.0000000000000666
 11
-115.9999999999992042
 21
319.9999999999998863
 31
-0.0000000000000711
210
0.0
220
1.0
230
-0.0000000000000002
  0
LINE
  5
DB14
  8
0
  6
VERDECKT
 62
     1
 10
-130.9999999999992042
 20
299.9999999999998863
 30
-0.0000000000000666
 11
-130.9999999999992042
 21
319.9999999999998863
 31
-0.0000000000000711
210
0.0
220
1.0
230
-0.0000000000000002
  0
CIRCLE
  5
DB15
  8
0
  6
VERDECKT
 62
     1
 10
-70.0000000000004547
 20
234.9999999999972999
 30
-0.0000000000000522
 40
53.5393851075507996
  0
CIRCLE
  5
DB16
  8
0
  6
VERDECKT
 62
     1
 10
70.0000000000004547
 20
234.9999999999974136
 30
0.0
 40
56.7000000000002728
210
0.0
220
-0.0000000000000002
230
-1.0
  0
CIRCLE
  5
DB17
  8
0
  6
VERDECKT
 62
     1
 10
70.0000000000004547
 20
234.9999999999972999
 30
0.0
 40
51.9466189300505903
210
0.0
220
-0.0000000000000002
230
-1.0
  0
CIRCLE
  5
DB18
  8
0
  6
VERDECKT
 62
     1
 10
70.0000000000004547
 20
234.9999999999972999
 30
0.0
 40
53.2000000000002728
210
0.0
220
-0.0000000000000002
230
-1.0
  0
CIRCLE
  5
DB19
  8
0
  6
VERDECKT
 62
     1
 10
70.0000000000004547
 20
234.9999999999972999
 30
0.0
 40
55.5855373731010332
210
0.0
220
-0.0000000000000002
230
-1.0
  0
CIRCLE
  5
DB1A
  8
0
  6
VERDECKT
 62
     1
 10
70.0000000000004547
 20
234.9999999999972999
 30
0.0
 40
55.0995849235805508
210
0.0
220
-0.0000000000000002
230
-1.0
  0
CIRCLE
  5
DB1B
  8
0
  6
VERDECKT
 62
     1
 10
70.0000000000004547
 20
234.9999999999972999
 30
0.0
 40
52.8989794855665423
210
0.0
220
-0.0000000000000002
230
-1.0
  0
CIRCLE
  5
DB1C
  8
0
  6
VERDECKT
 62
     1
 10
70.0000000000004547
 20
234.9999999999972999
 30
0.0
 40
52.9035308411406078
210
0.0
220
-0.0000000000000002
230
-1.0
  0
CIRCLE
  5
DB1D
  8
0
  6
VERDECKT
 62
     1
 10
69.9999999999995453
 20
234.9999999999972999
 30
-0.0000000000000522
 40
53.5393851075507996
  0
CIRCLE
  5
DB1E
  8
0
  6
VERDECKT
 62
     1
 10
-69.9999999999995453
 20
234.9999999999974136
 30
0.0
 40
56.7000000000002728
210
0.0
220
-0.0000000000000002
230
-1.0
  0
CIRCLE
  5
DB1F
  8
0
  6
VERDECKT
 62
     1
 10
-69.9999999999995453
 20
234.9999999999972999
 30
0.0
 40
51.9466189300505903
210
0.0
220
-0.0000000000000002
230
-1.0
  0
CIRCLE
  5
DB20
  8
0
  6
VERDECKT
 62
     1
 10
-69.9999999999995453
 20
234.9999999999972999
 30
0.0
 40
53.2000000000002728
210
0.0
220
-0.0000000000000002
230
-1.0
  0
CIRCLE
  5
DB21
  8
0
  6
VERDECKT
 62
     1
 10
-69.9999999999995453
 20
234.9999999999972999
 30
0.0
 40
55.5855373731010332
210
0.0
220
-0.0000000000000002
230
-1.0
  0
CIRCLE
  5
DB22
  8
0
  6
VERDECKT
 62
     1
 10
-69.9999999999995453
 20
234.9999999999972999
 30
0.0
 40
55.0995849235805508
210
0.0
220
-0.0000000000000002
230
-1.0
  0
CIRCLE
  5
DB23
  8
0
  6
VERDECKT
 62
     1
 10
-69.9999999999995453
 20
234.9999999999972999
 30
0.0
 40
52.8989794855665423
210
0.0
220
-0.0000000000000002
230
-1.0
  0
CIRCLE
  5
DB24
  8
0
  6
VERDECKT
 62
     1
 10
-69.9999999999995453
 20
234.9999999999972999
 30
0.0
 40
52.9035308411406078
210
0.0
220
-0.0000000000000002
230
-1.0
  0
LINE
  5
DB25
  8
0
  6
VERDECKT
 62
     1
 10
130.9999999999994031
 20
318.9999999999998863
 30
-0.0000000000000708
 11
115.9999999999993037
 21
318.9999999999998863
 31
-0.0000000000000708
210
0.0
220
1.0
230
-0.0000000000000002
  0
LINE
  5
DB26
  8
0
  6
VERDECKT
 62
     1
 10
130.9999999999994031
 20
298.3493649053887111
 30
-0.0000000000000662
 11
115.9999999999993037
 21
298.3493649053887111
 31
-0.0000000000000662
210
0.0
220
1.0
230
-0.0000000000000002
  0
LINE
  5
DB27
  8
0
  6
VERDECKT
 62
     1
 10
130.9999999999994031
 20
299.3493649053887111
 30
-0.0000000000000665
 11
130.9999999999994031
 21
298.3493649053887111
 31
-0.0000000000000662
210
0.0
220
1.0
230
-0.0000000000000002
  0
LINE
  5
DB28
  8
0
  6
VERDECKT
 62
     1
 10
130.9999999999994031
 20
299.3493649053887111
 30
-0.0000000000000665
 11
115.9999999999993037
 21
299.3493649053887111
 31
-0.0000000000000665
210
0.0
220
1.0
230
-0.0000000000000002
  0
LINE
  5
DB29
  8
0
  6
VERDECKT
 62
     1
 10
115.9999999999993037
 20
299.3493649053887111
 30
-0.0000000000000665
 11
115.9999999999993037
 21
298.3493649053887111
 31
-0.0000000000000662
210
0.0
220
1.0
230
-0.0000000000000002
  0
LINE
  5
DB2A
  8
0
  6
VERDECKT
 62
     1
 10
130.9999999999994031
 20
299.9999999999998863
 30
-0.0000000000000666
 11
130.9999999999994031
 21
299.3493649053887111
 31
-0.0000000000000665
210
0.0
220
1.0
230
-0.0000000000000002
  0
LINE
  5
DB2B
  8
0
  6
VERDECKT
 62
     1
 10
115.9999999999993037
 20
299.9999999999998863
 30
-0.0000000000000666
 11
115.9999999999993037
 21
299.3493649053887111
 31
-0.0000000000000665
210
0.0
220
1.0
230
-0.0000000000000002
  0
LINE
  5
DB2C
  8
0
  6
VERDECKT
 62
     1
 10
-130.999999999999801
 20
318.9999999999998863
 30
-0.0000000000000708
 11
-115.9999999999997016
 21
318.9999999999998863
 31
-0.0000000000000708
210
0.0
220
1.0
230
-0.0000000000000002
  0
LINE
  5
DB2D
  8
0
  6
VERDECKT
 62
     1
 10
-130.999999999999801
 20
298.3493649053887111
 30
-0.0000000000000662
 11
-115.9999999999997016
 21
298.3493649053887111
 31
-0.0000000000000662
210
0.0
220
1.0
230
-0.0000000000000002
  0
LINE
  5
DB2E
  8
0
  6
VERDECKT
 62
     1
 10
-130.999999999999801
 20
299.3493649053887111
 30
-0.0000000000000665
 11
-130.999999999999801
 21
298.3493649053887111
 31
-0.0000000000000662
210
0.0
220
1.0
230
-0.0000000000000002
  0
LINE
  5
DB2F
  8
0
  6
VERDECKT
 62
     1
 10
-115.9999999999997016
 20
299.3493649053887111
 30
-0.0000000000000665
 11
-115.9999999999997016
 21
298.3493649053887111
 31
-0.0000000000000662
210
0.0
220
1.0
230
-0.0000000000000002
  0
LINE
  5
DB30
  8
0
  6
VERDECKT
 62
     1
 10
-130.999999999999801
 20
299.3493649053887111
 30
-0.0000000000000665
 11
-115.9999999999997016
 21
299.3493649053887111
 31
-0.0000000000000665
210
0.0
220
1.0
230
-0.0000000000000002
  0
LINE
  5
DB31
  8
0
  6
VERDECKT
 62
     1
 10
-130.999999999999801
 20
299.9999999999998863
 30
-0.0000000000000666
 11
-130.999999999999801
 21
299.3493649053887111
 31
-0.0000000000000665
210
0.0
220
1.0
230
-0.0000000000000002
  0
LINE
  5
DB32
  8
0
  6
VERDECKT
 62
     1
 10
-115.9999999999997016
 20
299.9999999999998863
 30
-0.0000000000000666
 11
-115.9999999999997016
 21
299.3493649053887111
 31
-0.0000000000000665
210
0.0
220
1.0
230
-0.0000000000000002
  0
LINE
  5
DB33
  8
0
  6
VERDECKT
 62
     1
 10
115.9999999999993037
 20
299.9999999999998863
 30
-0.0000000000000666
 11
130.9999999999992895
 21
299.9999999999998863
 31
-0.0000000000000666
210
0.0
220
1.0
230
-0.0000000000000002
  0
LINE
  5
DB34
  8
0
  6
VERDECKT
 62
     1
 10
115.9999999999993037
 20
299.9999999999998863
 30
-0.0000000000000666
 11
115.9999999999993037
 21
319.9999999999998863
 31
-0.0000000000000711
210
0.0
220
1.0
230
-0.0000000000000002
  0
LINE
  5
DB35
  8
0
  6
VERDECKT
 62
     1
 10
130.9999999999992895
 20
299.9999999999998863
 30
-0.0000000000000666
 11
130.9999999999992895
 21
319.9999999999998863
 31
-0.0000000000000711
210
0.0
220
1.0
230
-0.0000000000000002
  0
LINE
  5
DB36
  8
0
  6
VERDECKT
 62
     1
 10
106.9999999999993037
 20
319.9999999999998863
 30
-0.0000000000000711
 11
104.9999999999993037
 21
321.9999999999998863
 31
-0.0000000000000715
210
0.0
220
1.0
230
-0.0000000000000002
  0
LINE
  5
DB37
  8
0
  6
VERDECKT
 62
     1
 10
112.9999999999993037
 20
319.9999999999998863
 30
-0.0000000000000711
 11
114.9999999999993037
 21
321.9999999999998863
 31
-0.0000000000000715
210
0.0
220
1.0
230
-0.0000000000000002
  0
LINE
  5
DB38
  8
0
  6
VERDECKT
 62
     1
 10
133.0000000000111129
 20
144.0000000000023874
 30
-0.000000000000032
 11
133.0000000000108002
 21
319.9999999999997726
 31
-0.0000000000000711
210
0.0
220
1.0
230
-0.0000000000000002
  0
LINE
  5
DB39
  8
0
  6
VERDECKT
 62
     1
 10
-132.9292893218701863
 20
144.0000000000025011
 30
-0.000000000000032
 11
-132.9292893218701863
 21
319.9999999999998863
 31
-0.0000000000000711
210
0.0
220
1.0
230
-0.0000000000000002
  0
LINE
  5
DB3A
  8
0
  6
VERDECKT
 62
     1
 10
132.9292893218924121
 20
144.0000000000025011
 30
-0.000000000000032
 11
132.9292893218924121
 21
319.9999999999997726
 31
-0.0000000000000711
210
0.0
220
1.0
230
-0.0000000000000002
  0
LINE
  5
DB3B
  8
0
  6
VERDECKT
 62
     1
 10
-132.9999999999886882
 20
144.0000000000025011
 30
-0.000000000000032
 11
-132.9999999999884039
 21
319.9999999999997726
 31
-0.0000000000000711
210
0.0
220
1.0
230
-0.0000000000000002
  0
LINE
  5
DB3C
  8
0
  6
VERDECKT
 62
     1
 10
-130.9999999999888018
 20
144.0000000000025011
 30
-0.000000000000032
 11
-132.929289321870101
 21
144.0000000000025011
 31
-0.000000000000032
210
0.0
220
1.0
230
-0.0000000000000002
  0
LINE
  5
DB3D
  8
0
  6
VERDECKT
 62
     1
 10
131.0000000000111129
 20
144.0000000000025011
 30
-0.000000000000032
 11
132.9292893218924121
 21
144.0000000000025011
 31
-0.000000000000032
210
0.0
220
1.0
230
-0.0000000000000002
  0
LINE
  5
DB3E
  8
0
  6
VERDECKT
 62
     1
 10
-130.9999999999888871
 20
142.0000000000023874
 30
-0.0000000000000315
 11
-130.9999999999888871
 21
140.0000000000025011
 31
-0.0000000000000311
210
0.0
220
1.0
230
-0.0000000000000002
  0
LINE
  5
DB3F
  8
0
  6
VERDECKT
 62
     1
 10
-130.9999999999888018
 20
142.0000000000023874
 30
-0.0000000000000315
 11
-130.9999999999888018
 21
144.0000000000023874
 31
-0.000000000000032
210
0.0
220
1.0
230
-0.0000000000000002
  0
LINE
  5
DB40
  8
0
  6
VERDECKT
 62
     1
 10
131.0000000000111129
 20
142.0000000000023874
 30
-0.0000000000000315
 11
131.0000000000111129
 21
144.0000000000025011
 31
-0.000000000000032
210
0.0
220
1.0
230
-0.0000000000000002
  0
LINE
  5
DB41
  8
0
  6
VERDECKT
 62
     1
 10
131.0000000000111129
 20
142.0000000000023874
 30
-0.0000000000000315
 11
131.0000000000111129
 21
140.0000000000025011
 31
-0.0000000000000311
210
0.0
220
1.0
230
-0.0000000000000002
  0
ARC
  5
DB42
  8
0
  6
VERDECKT
 62
     1
 10
130.9999999999888018
 20
144.0000000000025011
 30
0.0
 40
2.0000000000000271
210
0.0
220
-0.0000000000000002
230
-1.0
 50
270.0
 51
359.9999999999982947
  0
LINE
  5
DB43
  8
0
  6
VERDECKT
 62
     1
 10
-132.9999999999888018
 20
144.0000000000025011
 30
-0.000000000000032
 11
-134.9999999999888018
 21
144.0000000000025011
 31
-0.000000000000032
210
0.0
220
1.0
230
-0.0000000000000002
  0
ARC
  5
DB44
  8
0
  6
VERDECKT
 62
     1
 10
131.0000000000111129
 20
144.0000000000025011
 30
-0.000000000000032
 40
2.0000000000000271
 50
270.0
 51
359.9999999999990905
  0
LINE
  5
DB45
  8
0
  6
VERDECKT
 62
     1
 10
133.0000000000111129
 20
144.0000000000025011
 30
-0.000000000000032
 11
135.0000000000111129
 21
144.0000000000025011
 31
-0.000000000000032
210
0.0
220
1.0
230
-0.0000000000000002
  0
LINE
  5
DB46
  8
0
  6
VERDECKT
 62
     1
 10
-48.9999999999888587
 20
140.0000000000025011
 30
-0.0000000000000311
 11
-48.9999999999888587
 21
142.0000000000023874
 31
-0.0000000000000315
210
0.0
220
1.0
230
-0.0000000000000002
  0
LINE
  5
DB47
  8
0
  6
VERDECKT
 62
     1
 10
49.0000000000111484
 20
140.0000000000025011
 30
-0.0000000000000311
 11
49.0000000000111484
 21
142.0000000000023874
 31
-0.0000000000000315
210
0.0
220
1.0
230
-0.0000000000000002
  0
CIRCLE
  5
DB48
  8
0
  6
VERDECKT
 62
     1
 10
-69.9999999999984084
 20
234.9999999999976126
 30
0.0
 40
56.2328897227478208
210
0.0
220
-0.0000000000000002
230
-1.0
  0
CIRCLE
  5
DB49
  8
0
  6
VERDECKT
 62
     1
 10
-69.9999999999984084
 20
234.9999999999976126
 30
0.0
 40
54.2500000000000782
210
0.0
220
-0.0000000000000002
230
-1.0
  0
CIRCLE
  5
DB4A
  8
0
  6
VERDECKT
 62
     1
 10
-70.0
 20
234.9999999999976126
 30
-0.0000000000000522
 40
56.2328897227478208
  0
CIRCLE
  5
DB4B
  8
0
  6
VERDECKT
 62
     1
 10
-70.0
 20
234.9999999999976126
 30
-0.0000000000000522
 40
54.2500000000000782
  0
CIRCLE
  5
DB4C
  8
0
  6
VERDECKT
 62
     1
 10
114.9999999999995026
 20
294.9999999999998863
 30
-0.0000000000000655
 40
3.0
  0
ARC
  5
DB4D
  8
0
  6
VERDECKT
 62
     1
 10
-114.9999999999994031
 20
294.9999999999998863
 30
0.0
 40
3.903849842890827
210
0.0
220
-0.0000000000000002
230
-1.0
 50
351.1589143224243799
 51
8.8410856775749753
  0
ARC
  5
DB4E
  8
0
  6
VERDECKT
 62
     1
 10
-114.9999999999995026
 20
294.9999999999998863
 30
0.0
 40
3.9038498428909052
210
0.0
220
-0.0000000000000002
230
-1.0
 50
171.1589143224244935
 51
188.8410856775747959
  0
CIRCLE
  5
DB4F
  8
0
  6
VERDECKT
 62
     1
 10
114.9999999999995026
 20
294.9999999999998863
 30
-0.0000000000000655
 40
2.0
  0
CIRCLE
  5
DB50
  8
0
  6
VERDECKT
 62
     1
 10
114.9999999999995026
 20
294.9999999999998863
 30
-0.0000000000000655
 40
1.825
  0
LINE
  5
DB51
  8
0
  6
VERDECKT
 62
     1
 10
106.0961501571082977
 20
320.8788498428908156
 30
-0.0000000000000712
 11
106.1425340447588042
 21
320.8788498428908156
 31
-0.0000000000000712
210
0.0
220
1.0
230
-0.0000000000000002
  0
LINE
  5
DB52
  8
0
  6
VERDECKT
 62
     1
 10
113.8574659552398032
 20
320.8788498428908156
 30
-0.0000000000000712
 11
106.1425340447588042
 21
320.8788498428908156
 31
-0.0000000000000712
210
0.0
220
1.0
230
-0.0000000000000002
  0
LINE
  5
DB53
  8
0
  6
VERDECKT
 62
     1
 10
113.8574659552398032
 20
320.8788498428908156
 30
-0.0000000000000712
 11
113.903849842890196
 21
320.8788498428908156
 31
-0.0000000000000712
210
0.0
220
1.0
230
-0.0000000000000002
  0
POLYLINE
  8
0
  5
E11D
  62
1
  66
     1
 10
0.000000
 20
0.000000
 30
0.000000
  70
     8
  0
VERTEX
  8
0
  5
E11E
 10
105.843
 20
321.175
 30
-7.13000e-14
  70
    32
  0
VERTEX
  8
0
  5
E11F
 10
105.846
 20
321.172
 30
-7.13000e-14
  70
    32
  0
VERTEX
  8
0
  5
E120
 10
105.850
 20
321.169
 30
-7.13000e-14
  70
    32
  0
VERTEX
  8
0
  5
E121
 10
105.853
 20
321.165
 30
-7.12999e-14
  70
    32
  0
VERTEX
  8
0
  5
E122
 10
105.856
 20
321.162
 30
-7.12998e-14
  70
    32
  0
VERTEX
  8
0
  5
E123
 10
105.859
 20
321.159
 30
-7.12997e-14
  70
    32
  0
VERTEX
  8
0
  5
E124
 10
105.863
 20
321.156
 30
-7.12996e-14
  70
    32
  0
VERTEX
  8
0
  5
E125
 10
105.866
 20
321.152
 30
-7.12995e-14
  70
    32
  0
VERTEX
  8
0
  5
E126
 10
105.869
 20
321.149
 30
-7.12993e-14
  70
    32
  0
VERTEX
  8
0
  5
E127
 10
105.872
 20
321.146
 30
-7.12991e-14
  70
    32
  0
VERTEX
  8
0
  5
E128
 10
105.876
 20
321.143
 30
-7.12989e-14
  70
    32
  0
VERTEX
  8
0
  5
E129
 10
105.879
 20
321.140
 30
-7.12987e-14
  70
    32
  0
VERTEX
  8
0
  5
E12A
 10
105.882
 20
321.136
 30
-7.12984e-14
  70
    32
  0
VERTEX
  8
0
  5
E12B
 10
105.885
 20
321.133
 30
-7.12981e-14
  70
    32
  0
VERTEX
  8
0
  5
E12C
 10
105.889
 20
321.130
 30
-7.12978e-14
  70
    32
  0
VERTEX
  8
0
  5
E12D
 10
105.892
 20
321.127
 30
-7.12975e-14
  70
    32
  0
VERTEX
  8
0
  5
E12E
 10
105.895
 20
321.124
 30
-7.12972e-14
  70
    32
  0
VERTEX
  8
0
  5
E12F
 10
105.898
 20
321.120
 30
-7.12968e-14
  70
    32
  0
VERTEX
  8
0
  5
E130
 10
105.902
 20
321.117
 30
-7.12964e-14
  70
    32
  0
VERTEX
  8
0
  5
E131
 10
105.905
 20
321.114
 30
-7.12960e-14
  70
    32
  0
VERTEX
  8
0
  5
E132
 10
105.908
 20
321.111
 30
-7.12956e-14
  70
    32
  0
VERTEX
  8
0
  5
E133
 10
105.911
 20
321.108
 30
-7.12951e-14
  70
    32
  0
VERTEX
  8
0
  5
E134
 10
105.914
 20
321.104
 30
-7.12946e-14
  70
    32
  0
VERTEX
  8
0
  5
E135
 10
105.918
 20
321.101
 30
-7.12941e-14
  70
    32
  0
VERTEX
  8
0
  5
E136
 10
105.921
 20
321.098
 30
-7.12936e-14
  70
    32
  0
VERTEX
  8
0
  5
E137
 10
105.924
 20
321.095
 30
-7.12931e-14
  70
    32
  0
VERTEX
  8
0
  5
E138
 10
105.927
 20
321.092
 30
-7.12925e-14
  70
    32
  0
VERTEX
  8
0
  5
E139
 10
105.930
 20
321.089
 30
-7.12919e-14
  70
    32
  0
VERTEX
  8
0
  5
E13A
 10
105.934
 20
321.085
 30
-7.12913e-14
  70
    32
  0
VERTEX
  8
0
  5
E13B
 10
105.937
 20
321.082
 30
-7.12907e-14
  70
    32
  0
VERTEX
  8
0
  5
E13C
 10
105.940
 20
321.079
 30
-7.12900e-14
  70
    32
  0
VERTEX
  8
0
  5
E13D
 10
105.943
 20
321.076
 30
-7.12894e-14
  70
    32
  0
VERTEX
  8
0
  5
E13E
 10
105.946
 20
321.073
 30
-7.12887e-14
  70
    32
  0
VERTEX
  8
0
  5
E13F
 10
105.950
 20
321.070
 30
-7.12879e-14
  70
    32
  0
VERTEX
  8
0
  5
E140
 10
105.953
 20
321.066
 30
-7.12872e-14
  70
    32
  0
VERTEX
  8
0
  5
E141
 10
105.956
 20
321.063
 30
-7.12864e-14
  70
    32
  0
VERTEX
  8
0
  5
E142
 10
105.959
 20
321.060
 30
-7.12856e-14
  70
    32
  0
VERTEX
  8
0
  5
E143
 10
105.962
 20
321.057
 30
-7.12848e-14
  70
    32
  0
VERTEX
  8
0
  5
E144
 10
105.965
 20
321.054
 30
-7.12840e-14
  70
    32
  0
VERTEX
  8
0
  5
E145
 10
105.969
 20
321.051
 30
-7.12832e-14
  70
    32
  0
VERTEX
  8
0
  5
E146
 10
105.972
 20
321.048
 30
-7.12823e-14
  70
    32
  0
VERTEX
  8
0
  5
E147
 10
105.975
 20
321.044
 30
-7.12814e-14
  70
    32
  0
VERTEX
  8
0
  5
E148
 10
105.978
 20
321.041
 30
-7.12805e-14
  70
    32
  0
VERTEX
  8
0
  5
E149
 10
105.981
 20
321.038
 30
-7.12795e-14
  70
    32
  0
VERTEX
  8
0
  5
E14A
 10
105.984
 20
321.035
 30
-7.12786e-14
  70
    32
  0
VERTEX
  8
0
  5
E14B
 10
105.988
 20
321.032
 30
-7.12776e-14
  70
    32
  0
VERTEX
  8
0
  5
E14C
 10
105.991
 20
321.029
 30
-7.12766e-14
  70
    32
  0
VERTEX
  8
0
  5
E14D
 10
105.994
 20
321.026
 30
-7.12755e-14
  70
    32
  0
VERTEX
  8
0
  5
E14E
 10
105.997
 20
321.023
 30
-7.12745e-14
  70
    32
  0
VERTEX
  8
0
  5
E14F
 10
106.000
 20
321.019
 30
-7.12734e-14
  70
    32
  0
VERTEX
  8
0
  5
E150
 10
106.003
 20
321.016
 30
-7.12723e-14
  70
    32
  0
VERTEX
  8
0
  5
E151
 10
106.007
 20
321.013
 30
-7.12712e-14
  70
    32
  0
VERTEX
  8
0
  5
E152
 10
106.010
 20
321.010
 30
-7.12700e-14
  70
    32
  0
VERTEX
  8
0
  5
E153
 10
106.013
 20
321.007
 30
-7.12689e-14
  70
    32
  0
VERTEX
  8
0
  5
E154
 10
106.016
 20
321.004
 30
-7.12677e-14
  70
    32
  0
VERTEX
  8
0
  5
E155
 10
106.019
 20
321.001
 30
-7.12665e-14
  70
    32
  0
VERTEX
  8
0
  5
E156
 10
106.022
 20
320.998
 30
-7.12653e-14
  70
    32
  0
VERTEX
  8
0
  5
E157
 10
106.025
 20
320.995
 30
-7.12640e-14
  70
    32
  0
VERTEX
  8
0
  5
E158
 10
106.028
 20
320.992
 30
-7.12627e-14
  70
    32
  0
VERTEX
  8
0
  5
E159
 10
106.032
 20
320.988
 30
-7.12614e-14
  70
    32
  0
VERTEX
  8
0
  5
E15A
 10
106.035
 20
320.985
 30
-7.12601e-14
  70
    32
  0
VERTEX
  8
0
  5
E15B
 10
106.038
 20
320.982
 30
-7.12588e-14
  70
    32
  0
VERTEX
  8
0
  5
E15C
 10
106.041
 20
320.979
 30
-7.12574e-14
  70
    32
  0
VERTEX
  8
0
  5
E15D
 10
106.044
 20
320.976
 30
-7.12560e-14
  70
    32
  0
VERTEX
  8
0
  5
E15E
 10
106.047
 20
320.973
 30
-7.12546e-14
  70
    32
  0
VERTEX
  8
0
  5
E15F
 10
106.050
 20
320.970
 30
-7.12532e-14
  70
    32
  0
VERTEX
  8
0
  5
E160
 10
106.053
 20
320.967
 30
-7.12517e-14
  70
    32
  0
VERTEX
  8
0
  5
E161
 10
106.057
 20
320.964
 30
-7.12503e-14
  70
    32
  0
VERTEX
  8
0
  5
E162
 10
106.060
 20
320.961
 30
-7.12488e-14
  70
    32
  0
VERTEX
  8
0
  5
E163
 10
106.063
 20
320.958
 30
-7.12473e-14
  70
    32
  0
VERTEX
  8
0
  5
E164
 10
106.066
 20
320.955
 30
-7.12457e-14
  70
    32
  0
VERTEX
  8
0
  5
E165
 10
106.069
 20
320.952
 30
-7.12442e-14
  70
    32
  0
VERTEX
  8
0
  5
E166
 10
106.072
 20
320.949
 30
-7.12426e-14
  70
    32
  0
VERTEX
  8
0
  5
E167
 10
106.075
 20
320.945
 30
-7.12410e-14
  70
    32
  0
VERTEX
  8
0
  5
E168
 10
106.078
 20
320.942
 30
-7.12393e-14
  70
    32
  0
VERTEX
  8
0
  5
E169
 10
106.081
 20
320.939
 30
-7.12377e-14
  70
    32
  0
VERTEX
  8
0
  5
E16A
 10
106.084
 20
320.936
 30
-7.12360e-14
  70
    32
  0
VERTEX
  8
0
  5
E16B
 10
106.087
 20
320.933
 30
-7.12343e-14
  70
    32
  0
VERTEX
  8
0
  5
E16C
 10
106.091
 20
320.930
 30
-7.12326e-14
  70
    32
  0
VERTEX
  8
0
  5
E16D
 10
106.094
 20
320.927
 30
-7.12309e-14
  70
    32
  0
VERTEX
  8
0
  5
E16E
 10
106.097
 20
320.924
 30
-7.12291e-14
  70
    32
  0
VERTEX
  8
0
  5
E16F
 10
106.100
 20
320.921
 30
-7.12273e-14
  70
    32
  0
VERTEX
  8
0
  5
E170
 10
106.103
 20
320.918
 30
-7.12255e-14
  70
    32
  0
VERTEX
  8
0
  5
E171
 10
106.106
 20
320.915
 30
-7.12237e-14
  70
    32
  0
VERTEX
  8
0
  5
E172
 10
106.109
 20
320.912
 30
-7.12218e-14
  70
    32
  0
VERTEX
  8
0
  5
E173
 10
106.112
 20
320.909
 30
-7.12200e-14
  70
    32
  0
VERTEX
  8
0
  5
E174
 10
106.115
 20
320.906
 30
-7.12181e-14
  70
    32
  0
VERTEX
  8
0
  5
E175
 10
106.118
 20
320.903
 30
-7.12161e-14
  70
    32
  0
VERTEX
  8
0
  5
E176
 10
106.121
 20
320.900
 30
-7.12142e-14
  70
    32
  0
VERTEX
  8
0
  5
E177
 10
106.124
 20
320.897
 30
-7.12122e-14
  70
    32
  0
VERTEX
  8
0
  5
E178
 10
106.127
 20
320.894
 30
-7.12103e-14
  70
    32
  0
VERTEX
  8
0
  5
E179
 10
106.130
 20
320.891
 30
-7.12082e-14
  70
    32
  0
VERTEX
  8
0
  5
E17A
 10
106.133
 20
320.888
 30
-7.12062e-14
  70
    32
  0
VERTEX
  8
0
  5
E17B
 10
106.136
 20
320.885
 30
-7.12042e-14
  70
    32
  0
VERTEX
  8
0
  5
E17C
 10
106.139
 20
320.882
 30
-7.12021e-14
  70
    32
  0
VERTEX
  8
0
  5
E17D
 10
106.143
 20
320.879
 30
-7.12000e-14
  70
    32
  0
SEQEND
  8
0
  5
E17E
  0
LINE
  5
DB55
  8
0
  6
VERDECKT
 62
     1
 10
105.8430780618339071
 20
321.4999999999998863
 30
-0.0000000000000714
 11
105.8430780618339071
 21
321.1749999999998977
 31
-0.0000000000000713
210
0.0
220
1.0
230
-0.0000000000000002
  0
ARC
  5
DB56
  8
0
  6
VERDECKT
 62
     1
 10
109.9999999999992042
 20
312.9788498428906109
 30
-0.0000000000000695
 40
9.4810336989172406
 50
63.9952239226182087
 51
72.0813610304994938
  0
ARC
  5
DB57
  8
0
  6
VERDECKT
 62
     1
 10
109.9999999999992042
 20
312.9788498428910088
 30
-0.0000000000000695
 40
9.481033698916816
 50
107.9186389694999946
 51
116.004776077381706
  0
LINE
  5
DB58
  8
0
  6
VERDECKT
 62
     1
 10
114.1569219381646008
 20
321.1749999999998977
 30
-0.0000000000000713
 11
114.1569219381646008
 21
321.4999999999998863
 31
-0.0000000000000714
210
0.0
220
1.0
230
-0.0000000000000002
  0
POLYLINE
  8
0
  5
E17F
  62
1
  66
     1
 10
0.000000
 20
0.000000
 30
0.000000
  70
     8
  0
VERTEX
  8
0
  5
E180
 10
113.857
 20
320.879
 30
-7.12000e-14
  70
    32
  0
VERTEX
  8
0
  5
E181
 10
113.861
 20
320.882
 30
-7.12021e-14
  70
    32
  0
VERTEX
  8
0
  5
E182
 10
113.864
 20
320.885
 30
-7.12042e-14
  70
    32
  0
VERTEX
  8
0
  5
E183
 10
113.867
 20
320.888
 30
-7.12062e-14
  70
    32
  0
VERTEX
  8
0
  5
E184
 10
113.870
 20
320.891
 30
-7.12082e-14
  70
    32
  0
VERTEX
  8
0
  5
E185
 10
113.873
 20
320.894
 30
-7.12103e-14
  70
    32
  0
VERTEX
  8
0
  5
E186
 10
113.876
 20
320.897
 30
-7.12122e-14
  70
    32
  0
VERTEX
  8
0
  5
E187
 10
113.879
 20
320.900
 30
-7.12142e-14
  70
    32
  0
VERTEX
  8
0
  5
E188
 10
113.882
 20
320.903
 30
-7.12161e-14
  70
    32
  0
VERTEX
  8
0
  5
E189
 10
113.885
 20
320.906
 30
-7.12181e-14
  70
    32
  0
VERTEX
  8
0
  5
E18A
 10
113.888
 20
320.909
 30
-7.12200e-14
  70
    32
  0
VERTEX
  8
0
  5
E18B
 10
113.891
 20
320.912
 30
-7.12218e-14
  70
    32
  0
VERTEX
  8
0
  5
E18C
 10
113.894
 20
320.915
 30
-7.12237e-14
  70
    32
  0
VERTEX
  8
0
  5
E18D
 10
113.897
 20
320.918
 30
-7.12255e-14
  70
    32
  0
VERTEX
  8
0
  5
E18E
 10
113.900
 20
320.921
 30
-7.12273e-14
  70
    32
  0
VERTEX
  8
0
  5
E18F
 10
113.903
 20
320.924
 30
-7.12291e-14
  70
    32
  0
VERTEX
  8
0
  5
E190
 10
113.906
 20
320.927
 30
-7.12309e-14
  70
    32
  0
VERTEX
  8
0
  5
E191
 10
113.909
 20
320.930
 30
-7.12326e-14
  70
    32
  0
VERTEX
  8
0
  5
E192
 10
113.913
 20
320.933
 30
-7.12343e-14
  70
    32
  0
VERTEX
  8
0
  5
E193
 10
113.916
 20
320.936
 30
-7.12360e-14
  70
    32
  0
VERTEX
  8
0
  5
E194
 10
113.919
 20
320.939
 30
-7.12377e-14
  70
    32
  0
VERTEX
  8
0
  5
E195
 10
113.922
 20
320.942
 30
-7.12393e-14
  70
    32
  0
VERTEX
  8
0
  5
E196
 10
113.925
 20
320.945
 30
-7.12410e-14
  70
    32
  0
VERTEX
  8
0
  5
E197
 10
113.928
 20
320.949
 30
-7.12426e-14
  70
    32
  0
VERTEX
  8
0
  5
E198
 10
113.931
 20
320.952
 30
-7.12442e-14
  70
    32
  0
VERTEX
  8
0
  5
E199
 10
113.934
 20
320.955
 30
-7.12457e-14
  70
    32
  0
VERTEX
  8
0
  5
E19A
 10
113.937
 20
320.958
 30
-7.12473e-14
  70
    32
  0
VERTEX
  8
0
  5
E19B
 10
113.940
 20
320.961
 30
-7.12488e-14
  70
    32
  0
VERTEX
  8
0
  5
E19C
 10
113.943
 20
320.964
 30
-7.12503e-14
  70
    32
  0
VERTEX
  8
0
  5
E19D
 10
113.947
 20
320.967
 30
-7.12517e-14
  70
    32
  0
VERTEX
  8
0
  5
E19E
 10
113.950
 20
320.970
 30
-7.12532e-14
  70
    32
  0
VERTEX
  8
0
  5
E19F
 10
113.953
 20
320.973
 30
-7.12546e-14
  70
    32
  0
VERTEX
  8
0
  5
E1A0
 10
113.956
 20
320.976
 30
-7.12560e-14
  70
    32
  0
VERTEX
  8
0
  5
E1A1
 10
113.959
 20
320.979
 30
-7.12574e-14
  70
    32
  0
VERTEX
  8
0
  5
E1A2
 10
113.962
 20
320.982
 30
-7.12588e-14
  70
    32
  0
VERTEX
  8
0
  5
E1A3
 10
113.965
 20
320.985
 30
-7.12601e-14
  70
    32
  0
VERTEX
  8
0
  5
E1A4
 10
113.968
 20
320.988
 30
-7.12614e-14
  70
    32
  0
VERTEX
  8
0
  5
E1A5
 10
113.972
 20
320.992
 30
-7.12627e-14
  70
    32
  0
VERTEX
  8
0
  5
E1A6
 10
113.975
 20
320.995
 30
-7.12640e-14
  70
    32
  0
VERTEX
  8
0
  5
E1A7
 10
113.978
 20
320.998
 30
-7.12653e-14
  70
    32
  0
VERTEX
  8
0
  5
E1A8
 10
113.981
 20
321.001
 30
-7.12665e-14
  70
    32
  0
VERTEX
  8
0
  5
E1A9
 10
113.984
 20
321.004
 30
-7.12677e-14
  70
    32
  0
VERTEX
  8
0
  5
E1AA
 10
113.987
 20
321.007
 30
-7.12689e-14
  70
    32
  0
VERTEX
  8
0
  5
E1AB
 10
113.990
 20
321.010
 30
-7.12700e-14
  70
    32
  0
VERTEX
  8
0
  5
E1AC
 10
113.993
 20
321.013
 30
-7.12712e-14
  70
    32
  0
VERTEX
  8
0
  5
E1AD
 10
113.997
 20
321.016
 30
-7.12723e-14
  70
    32
  0
VERTEX
  8
0
  5
E1AE
 10
114.000
 20
321.019
 30
-7.12734e-14
  70
    32
  0
VERTEX
  8
0
  5
E1AF
 10
114.003
 20
321.023
 30
-7.12745e-14
  70
    32
  0
VERTEX
  8
0
  5
E1B0
 10
114.006
 20
321.026
 30
-7.12755e-14
  70
    32
  0
VERTEX
  8
0
  5
E1B1
 10
114.009
 20
321.029
 30
-7.12766e-14
  70
    32
  0
VERTEX
  8
0
  5
E1B2
 10
114.012
 20
321.032
 30
-7.12776e-14
  70
    32
  0
VERTEX
  8
0
  5
E1B3
 10
114.016
 20
321.035
 30
-7.12786e-14
  70
    32
  0
VERTEX
  8
0
  5
E1B4
 10
114.019
 20
321.038
 30
-7.12795e-14
  70
    32
  0
VERTEX
  8
0
  5
E1B5
 10
114.022
 20
321.041
 30
-7.12805e-14
  70
    32
  0
VERTEX
  8
0
  5
E1B6
 10
114.025
 20
321.044
 30
-7.12814e-14
  70
    32
  0
VERTEX
  8
0
  5
E1B7
 10
114.028
 20
321.048
 30
-7.12823e-14
  70
    32
  0
VERTEX
  8
0
  5
E1B8
 10
114.031
 20
321.051
 30
-7.12832e-14
  70
    32
  0
VERTEX
  8
0
  5
E1B9
 10
114.035
 20
321.054
 30
-7.12840e-14
  70
    32
  0
VERTEX
  8
0
  5
E1BA
 10
114.038
 20
321.057
 30
-7.12848e-14
  70
    32
  0
VERTEX
  8
0
  5
E1BB
 10
114.041
 20
321.060
 30
-7.12856e-14
  70
    32
  0
VERTEX
  8
0
  5
E1BC
 10
114.044
 20
321.063
 30
-7.12864e-14
  70
    32
  0
VERTEX
  8
0
  5
E1BD
 10
114.047
 20
321.066
 30
-7.12872e-14
  70
    32
  0
VERTEX
  8
0
  5
E1BE
 10
114.050
 20
321.070
 30
-7.12879e-14
  70
    32
  0
VERTEX
  8
0
  5
E1BF
 10
114.054
 20
321.073
 30
-7.12887e-14
  70
    32
  0
VERTEX
  8
0
  5
E1C0
 10
114.057
 20
321.076
 30
-7.12894e-14
  70
    32
  0
VERTEX
  8
0
  5
E1C1
 10
114.060
 20
321.079
 30
-7.12900e-14
  70
    32
  0
VERTEX
  8
0
  5
E1C2
 10
114.063
 20
321.082
 30
-7.12907e-14
  70
    32
  0
VERTEX
  8
0
  5
E1C3
 10
114.066
 20
321.085
 30
-7.12913e-14
  70
    32
  0
VERTEX
  8
0
  5
E1C4
 10
114.070
 20
321.089
 30
-7.12919e-14
  70
    32
  0
VERTEX
  8
0
  5
E1C5
 10
114.073
 20
321.092
 30
-7.12925e-14
  70
    32
  0
VERTEX
  8
0
  5
E1C6
 10
114.076
 20
321.095
 30
-7.12931e-14
  70
    32
  0
VERTEX
  8
0
  5
E1C7
 10
114.079
 20
321.098
 30
-7.12936e-14
  70
    32
  0
VERTEX
  8
0
  5
E1C8
 10
114.082
 20
321.101
 30
-7.12941e-14
  70
    32
  0
VERTEX
  8
0
  5
E1C9
 10
114.086
 20
321.104
 30
-7.12946e-14
  70
    32
  0
VERTEX
  8
0
  5
E1CA
 10
114.089
 20
321.108
 30
-7.12951e-14
  70
    32
  0
VERTEX
  8
0
  5
E1CB
 10
114.092
 20
321.111
 30
-7.12956e-14
  70
    32
  0
VERTEX
  8
0
  5
E1CC
 10
114.095
 20
321.114
 30
-7.12960e-14
  70
    32
  0
VERTEX
  8
0
  5
E1CD
 10
114.098
 20
321.117
 30
-7.12964e-14
  70
    32
  0
VERTEX
  8
0
  5
E1CE
 10
114.102
 20
321.120
 30
-7.12968e-14
  70
    32
  0
VERTEX
  8
0
  5
E1CF
 10
114.105
 20
321.124
 30
-7.12972e-14
  70
    32
  0
VERTEX
  8
0
  5
E1D0
 10
114.108
 20
321.127
 30
-7.12975e-14
  70
    32
  0
VERTEX
  8
0
  5
E1D1
 10
114.111
 20
321.130
 30
-7.12978e-14
  70
    32
  0
VERTEX
  8
0
  5
E1D2
 10
114.115
 20
321.133
 30
-7.12981e-14
  70
    32
  0
VERTEX
  8
0
  5
E1D3
 10
114.118
 20
321.136
 30
-7.12984e-14
  70
    32
  0
VERTEX
  8
0
  5
E1D4
 10
114.121
 20
321.140
 30
-7.12987e-14
  70
    32
  0
VERTEX
  8
0
  5
E1D5
 10
114.124
 20
321.143
 30
-7.12989e-14
  70
    32
  0
VERTEX
  8
0
  5
E1D6
 10
114.128
 20
321.146
 30
-7.12991e-14
  70
    32
  0
VERTEX
  8
0
  5
E1D7
 10
114.131
 20
321.149
 30
-7.12993e-14
  70
    32
  0
VERTEX
  8
0
  5
E1D8
 10
114.134
 20
321.152
 30
-7.12995e-14
  70
    32
  0
VERTEX
  8
0
  5
E1D9
 10
114.137
 20
321.156
 30
-7.12996e-14
  70
    32
  0
VERTEX
  8
0
  5
E1DA
 10
114.141
 20
321.159
 30
-7.12997e-14
  70
    32
  0
VERTEX
  8
0
  5
E1DB
 10
114.144
 20
321.162
 30
-7.12998e-14
  70
    32
  0
VERTEX
  8
0
  5
E1DC
 10
114.147
 20
321.165
 30
-7.12999e-14
  70
    32
  0
VERTEX
  8
0
  5
E1DD
 10
114.150
 20
321.169
 30
-7.13000e-14
  70
    32
  0
VERTEX
  8
0
  5
E1DE
 10
114.154
 20
321.172
 30
-7.13000e-14
  70
    32
  0
VERTEX
  8
0
  5
E1DF
 10
114.157
 20
321.175
 30
-7.13000e-14
  70
    32
  0
SEQEND
  8
0
  5
E1E0
  0
LINE
  5
DB5A
  8
0
  6
VERDECKT
 62
     1
 10
114.1569219381646008
 20
321.1749999999998977
 30
-0.0000000000000713
 11
105.8430780618339071
 21
321.1749999999998977
 31
-0.0000000000000713
210
0.0
220
1.0
230
-0.0000000000000002
  0
LINE
  5
DB5B
  8
0
  6
VERDECKT
 62
     1
 10
105.8430780618339071
 20
321.4999999999998863
 30
-0.0000000000000714
 11
114.1569219381646008
 21
321.4999999999998863
 31
-0.0000000000000714
210
0.0
220
1.0
230
-0.0000000000000002
  0
LINE
  5
DB5C
  8
0
  6
VERDECKT
 62
     1
 10
111.9999999999993037
 20
317.3999999999999204
 30
-0.0000000000000705
 11
107.9999999999993037
 21
317.3999999999999204
 31
-0.0000000000000705
210
0.0
220
1.0
230
-0.0000000000000002
  0
LINE
  5
DB5D
  8
0
  6
VERDECKT
 62
     1
 10
111.8249999999993065
 20
318.2749999999999204
 30
-0.0000000000000707
 11
108.1749999999993008
 21
318.2749999999999204
 31
-0.0000000000000707
210
0.0
220
1.0
230
-0.0000000000000002
  0
LINE
  5
DB5E
  8
0
  6
VERDECKT
 62
     1
 10
111.9999999999993037
 20
311.4999999999998863
 30
-0.0000000000000692
 11
107.9999999999993037
 21
311.4999999999998863
 31
-0.0000000000000692
210
0.0
220
1.0
230
-0.0000000000000002
  0
LINE
  5
DB5F
  8
0
  6
VERDECKT
 62
     1
 10
111.8249999999993065
 20
318.2749999999999204
 30
-0.0000000000000707
 11
111.9999999999993037
 21
317.3999999999999204
 31
-0.0000000000000705
210
0.0
220
1.0
230
-0.0000000000000002
  0
LINE
  5
DB60
  8
0
  6
VERDECKT
 62
     1
 10
108.1749999999993008
 20
318.2749999999999204
 30
-0.0000000000000707
 11
107.9999999999993037
 21
317.3999999999999204
 31
-0.0000000000000705
210
0.0
220
1.0
230
-0.0000000000000002
  0
LINE
  5
DB61
  8
0
  6
VERDECKT
 62
     1
 10
111.9999999999993037
 20
317.3999999999999204
 30
-0.0000000000000705
 11
111.9999999999993037
 21
311.4999999999998863
 31
-0.0000000000000692
210
0.0
220
1.0
230
-0.0000000000000002
  0
LINE
  5
DB62
  8
0
  6
VERDECKT
 62
     1
 10
107.9999999999993037
 20
317.3999999999999204
 30
-0.0000000000000705
 11
107.9999999999993037
 21
311.4999999999998863
 31
-0.0000000000000692
210
0.0
220
1.0
230
-0.0000000000000002
  0
ARC
  5
DB63
  8
0
  6
VERDECKT
 62
     1
 10
-107.1749999999992013
 20
318.3857864376267912
 30
0.0
 40
1.0000000000000679
210
0.0
220
-0.0000000000000002
230
-1.0
 50
135.0000000000034106
 51
180.0
  0
ARC
  5
DB64
  8
0
  6
VERDECKT
 62
     1
 10
-112.8249999999993065
 20
318.3857864376267912
 30
0.0
 40
1.000000000000085
210
0.0
220
-0.0000000000000002
230
-1.0
 50
0.0
 51
44.9999999999965397
  0
LINE
  5
DB65
  8
0
  6
VERDECKT
 62
     1
 10
107.8821067811857972
 20
319.0928932188132876
 30
-0.0000000000000709
 11
106.0961501571082977
 21
320.8788498428908156
 31
-0.0000000000000712
210
0.0
220
1.0
230
-0.0000000000000002
  0
LINE
  5
DB66
  8
0
  6
VERDECKT
 62
     1
 10
112.1178932188126964
 20
319.0928932188132876
 30
-0.0000000000000709
 11
113.903849842890196
 21
320.8788498428908156
 31
-0.0000000000000712
210
0.0
220
1.0
230
-0.0000000000000002
  0
LINE
  5
DB67
  8
0
  6
VERDECKT
 62
     1
 10
111.8249999999993065
 20
318.3857864376267912
 30
-0.0000000000000707
 11
111.8249999999993065
 21
318.2749999999999204
 31
-0.0000000000000707
210
0.0
220
1.0
230
-0.0000000000000002
  0
LINE
  5
DB68
  8
0
  6
VERDECKT
 62
     1
 10
108.1749999999993008
 20
318.3857864376267912
 30
-0.0000000000000707
 11
108.1749999999993008
 21
318.2749999999999204
 31
-0.0000000000000707
210
0.0
220
1.0
230
-0.0000000000000002
  0
ENDBLK
  5
DB6A
  8
0
  0
ENDSEC
  0
SECTION
  2
ENTITIES
  0
INSERT
  5
573
  8
ADSK_ASSOC_ENTITY_BACKUPS
  2
*S0
 10
0.0
 20
0.0
 30
0.0
  0
INSERT
  5
DA25
  8
STEMPEL
  2
A$CAE76173E
 10
0.0
 20
-150.0
 30
0.0
  0
INSERT
  5
DADA
  8
STEMPEL
  2
A$CC9E0CA15
 10
300.0
 20
0.0
 30
0.0
 41
-1.0
  0
INSERT
  5
DB6B
  8
STEMPEL
  2
A$C2711CB5E
 10
0.0
 20
0.0
 30
0.0
  0
VIEWPORT
  5
45D
 67
     1
  8
0
 10
296.7500016741948912
 20
209.7500007413214007
 30
0.0
 40
795.6883637233961508
 41
422.1649484536084174
 68
     1
 69
     1
1001
ACAD
1000
MVIEW
1002
{
1070
    16
1010
0.0
1020
0.0
1030
0.0
1010
0.0
1020
0.0
1030
1.0
1040
0.0
1040
422.1649484536084174
1040
296.7500016741948912
1040
209.7500007413214007
1040
50.0
1040
0.0
1040
0.0
1070
     0
1070
  1500
1070
     1
1070
     1
1070
     0
1070
     0
1070
     0
1070
     0
1040
0.0
1040
0.0
1040
0.0
1040
10.0
1040
10.0
1040
10.0
1040
10.0
1070
     0
1002
{
1002
}
1002
}
  0
ENDSEC
  0
EOF
