  0
SECTION
  2
HEADER
  9
$ACADVER
  1
AC1009
  9
$INSBASE
 10
0.0
 20
0.0
 30
0.0
  9
$EXTMIN
 10
-0.0256328098780614
 20
-42.1052865226963604
 30
-0.0198095435179084
  9
$EXTMAX
 10
631.0382097203262219
 20
405.490954789911882
 30
0.0063177383418633
  9
$LIMMIN
 10
0.0
 20
0.0
  9
$LIMMAX
 10
840.0000000000002274
 20
594.0
  9
$ORTHOMODE
 70
     1
  9
$REGENMODE
 70
     1
  9
$FILLMODE
 70
     1
  9
$QTEXTMODE
 70
     0
  9
$MIRRTEXT
 70
     1
  9
$DRAGMODE
 70
     2
  9
$LTSCALE
 40
20.0
  9
$OSMODE
 70
  1327
  9
$ATTMODE
 70
     1
  9
$TEXTSIZE
 40
3.5
  9
$TRACEWID
 40
0.5
  9
$TEXTSTYLE
  7
STANDARD
  9
$CLAYER
  8
0
  9
$CELTYPE
  6
AUSGEZOGEN
  9
$CECOLOR
 62
   256
  9
$DIMSCALE
 40
2.0
  9
$DIMASZ
 40
3.5
  9
$DIMEXO
 40
1.0
  9
$DIMDLI
 40
7.0
  9
$DIMRND
 40
0.0
  9
$DIMDLE
 40
0.0
  9
$DIMEXE
 40
1.0
  9
$DIMTP
 40
8.0
  9
$DIMTM
 40
8.0
  9
$DIMTXT
 40
3.5
  9
$DIMCEN
 40
1.5
  9
$DIMTSZ
 40
0.0
  9
$DIMTOL
 70
     0
  9
$DIMLIM
 70
     0
  9
$DIMTIH
 70
     0
  9
$DIMTOH
 70
     0
  9
$DIMSE1
 70
     0
  9
$DIMSE2
 70
     0
  9
$DIMTAD
 70
     1
  9
$DIMZIN
 70
     8
  9
$DIMBLK
  1

  9
$DIMASO
 70
     1
  9
$DIMSHO
 70
     0
  9
$DIMPOST
  1

  9
$DIMAPOST
  1

  9
$DIMALT
 70
     0
  9
$DIMALTD
 70
     2
  9
$DIMALTF
 40
25.3999999999999986
  9
$DIMLFAC
 40
1.0
  9
$DIMTOFL
 70
     1
  9
$DIMTVP
 40
0.0
  9
$DIMTIX
 70
     0
  9
$DIMSOXD
 70
     0
  9
$DIMSAH
 70
     0
  9
$DIMBLK1
  1

  9
$DIMBLK2
  1

  9
$DIMSTYLE
  2
STANDARD
  9
$DIMCLRD
 70
     0
  9
$DIMCLRE
 70
     0
  9
$DIMCLRT
 70
     1
  9
$DIMTFAC
 40
0.5
  9
$DIMGAP
 40
1.5
  9
$LUNITS
 70
     2
  9
$LUPREC
 70
     1
  9
$SKETCHINC
 40
1.0
  9
$FILLETRAD
 40
0.0
  9
$AUNITS
 70
     1
  9
$AUPREC
 70
     1
  9
$MENU
  1
ACAD
  9
$ELEVATION
 40
0.0
  9
$PELEVATION
 40
0.0
  9
$THICKNESS
 40
0.0
  9
$LIMCHECK
 70
     0
  9
$BLIPMODE
 70
     0
  9
$CHAMFERA
 40
0.0
  9
$CHAMFERB
 40
0.0
  9
$SKPOLY
 70
     0
  9
$TDCREATE
 40
2450056.6047916668467224
  9
$TDUPDATE
 40
2458386.3223032401874661
  9
$TDINDWG
 40
0.0559293519
  9
$TDUSRTIMER
 40
0.0559293519
  9
$USRTIMER
 70
     1
  9
$ANGBASE
 50
0.0
  9
$ANGDIR
 70
     0
  9
$PDMODE
 70
     0
  9
$PDSIZE
 40
0.0
  9
$PLINEWID
 40
0.0
  9
$COORDS
 70
     1
  9
$SPLFRAME
 70
     0
  9
$SPLINETYPE
 70
     6
  9
$SPLINESEGS
 70
     8
  9
$ATTDIA
 70
     0
  9
$ATTREQ
 70
     0
  9
$HANDLING
 70
     1
  9
$HANDSEED
  5
7E2
  9
$SURFTAB1
 70
     6
  9
$SURFTAB2
 70
     6
  9
$SURFTYPE
 70
     6
  9
$SURFU
 70
     6
  9
$SURFV
 70
     6
  9
$UCSNAME
  2

  9
$UCSORG
 10
0.0
 20
0.0
 30
0.0
  9
$UCSXDIR
 10
1.0
 20
0.0
 30
0.0
  9
$UCSYDIR
 10
0.0
 20
1.0
 30
0.0
  9
$PUCSNAME
  2

  9
$PUCSORG
 10
0.0
 20
0.0
 30
0.0
  9
$PUCSXDIR
 10
1.0
 20
0.0
 30
0.0
  9
$PUCSYDIR
 10
0.0
 20
1.0
 30
0.0
  9
$USERI1
 70
     0
  9
$USERI2
 70
     0
  9
$USERI3
 70
     0
  9
$USERI4
 70
     0
  9
$USERI5
 70
     0
  9
$USERR1
 40
0.0
  9
$USERR2
 40
0.0
  9
$USERR3
 40
0.0
  9
$USERR4
 40
0.0
  9
$USERR5
 40
0.0
  9
$WORLDVIEW
 70
     1
  9
$SHADEDGE
 70
     3
  9
$SHADEDIF
 70
    70
  9
$TILEMODE
 70
     1
  9
$MAXACTVP
 70
    16
  9
$PLIMCHECK
 70
     0
  9
$PEXTMIN
 10
-0.1588594694990846
 20
-0.1880035181743089
 30
-0.0000000000000058
  9
$PEXTMAX
 10
10.1788173058556008
 20
7.2924268721935439
 30
0.0000000000000104
  9
$PLIMMIN
 10
-0.2500002402958907
 20
-0.2499999962453767
  9
$PLIMMAX
 10
10.7499995194082203
 20
8.2499997634587334
  9
$UNITMODE
 70
     0
  9
$VISRETAIN
 70
     0
  9
$PLINEGEN
 70
     0
  9
$PSLTSCALE
 70
     0
  0
ENDSEC
  0
SECTION
  2
TABLES
  0
TABLE
  2
VPORT
 70
     1
  0
VPORT
  2
*ACTIVE
 70
     0
 10
0.0
 20
0.0
 11
1.0
 21
1.0
 12
0.0062884552238529
 22
224.0274390941507932
 13
0.0
 23
0.0
 14
5.0
 24
5.0
 15
10.0
 25
10.0
 16
-0.0000000000003979
 26
0.0
 36
1868.0190283254949009
 17
315.5000000000002274
 27
-42.334604960543011
 37
-82.1000022888183736
 40
450.9448416216802116
 41
1.8826466916354549
 42
50.0
 43
0.0
 44
0.0
 50
0.0
 51
0.0
 71
     0
 72
 10000
 73
     1
 74
     0
 75
     0
 76
     0
 77
     0
 78
     0
  0
ENDTAB
  0
TABLE
  2
LTYPE
 70
     4
  0
LTYPE
  2
AUSGEZOGEN
 70
     0
  3
Ausgezogene Linie
 72
    65
 73
     0
 40
0.0
  0
LTYPE
  2
CONTINUOUS
 70
     0
  3
Solid Line
 72
    65
 73
     0
 40
0.0
  0
LTYPE
  2
VERDECKT
 70
     0
  3
Verdeckt __ __ __ __ __ __ __ __ __ __ __ __ __
 72
    65
 73
     2
 40
0.375
 49
0.25
 49
-0.125
  0
ENDTAB
  0
TABLE
  2
LAYER
 70
    11
  0
LAYER
  2
0
 70
     0
 62
     7
  6
AUSGEZOGEN
  0
LAYER
  2
VOLL
 70
     0
 62
     1
  6
AUSGEZOGEN
  0
LAYER
  2
BEM
 70
     0
 62
     7
  6
AUSGEZOGEN
  0
LAYER
  2
DEFPOINTS
 70
     0
 62
     7
  6
AUSGEZOGEN
  0
LAYER
  2
TEXT
 70
     0
 62
     7
  6
AUSGEZOGEN
  0
ENDTAB
  0
TABLE
  2
STYLE
 70
     4
  0
STYLE
  2
STANDARD
 70
     0
 40
0.0
 41
0.8
 50
0.0
 71
     0
 42
3.5
  3
simplex.shx
  4

  0
STYLE
  2
GREEKS
 70
     0
 40
0.0
 41
1.0
 50
0.0
 71
     0
 42
3.5
  3
SIMPLEX.shx
  4

  0
ENDTAB
  0
TABLE
  2
VIEW
 70
     2
  0
ENDTAB
  0
TABLE
  2
UCS
 70
     0
  0
ENDTAB
  0
TABLE
  2
APPID
 70
     8
  0
APPID
  2
ACAD
 70
     0
  0
APPID
  2
ACAD_NAV_VCDISPLAY
 70
     0
  0
APPID
  2
ACAECLAYERSTANDARD
 70
     0
  0
APPID
  2
ACCMTRANSPARENCY
 70
     0
  0
APPID
  2
ACAD_PSEXT
 70
     0
  0
APPID
  2
ACAD_MLEADERVER
 70
     0
  0
APPID
  2
ACAD_OBJECT_CHANGE_GUID
 70
     0
  0
APPID
  2
ACAD_EXEMPT_FROM_CAD_STANDARDS
 70
     0
  0
ENDTAB
  0
TABLE
  2
DIMSTYLE
 70
     2
  0
DIMSTYLE
  2
STANDARD
 70
     0
  3

  4

  5

  6

  7

 40
1.0
 41
0.18
 42
0.0625
 43
0.38
 44
0.18
 45
0.0
 46
0.0
 47
0.0
 48
0.0
140
0.18
141
0.09
142
0.0
143
25.3999999999999986
144
1.0
145
0.0
146
1.0
147
0.09
 71
     0
 72
     0
 73
     1
 74
     1
 75
     0
 76
     0
 77
     0
 78
     0
170
     0
171
     2
172
     0
173
     0
174
     0
175
     0
176
     0
177
     0
178
     0
  0
ENDTAB
  0
ENDSEC
  0
SECTION
  2
BLOCKS
  0
BLOCK
  8
0
  2
$MODEL_SPACE
 70
     0
 10
0.0
 20
0.0
 30
0.0
  3
$MODEL_SPACE
  1

  0
ENDBLK
  5
4C
  8
0
  0
BLOCK
 67
     1
  8
0
  2
$PAPER_SPACE
 70
     0
 10
0.0
 20
0.0
 30
0.0
  3
$PAPER_SPACE
  1

  0
ENDBLK
  5
4A
 67
     1
  8
0
  0
BLOCK
  8
0
  2
A$C45EB5291
 70
     0
 10
0.0
 20
0.0
 30
0.0
  3
A$C45EB5291
  1

  0
LINE
  5
70F
  8
0
  6
AUSGEZOGEN
 62
     3
 10
0.0
 20
39.7653973282753199
 30
0.0
 11
0.0
 21
-39.7653973282752773
 31
0.0
  0
LINE
  5
710
  8
0
  6
AUSGEZOGEN
 62
     3
 10
631.0
 20
-35.6251133647400877
 30
0.0000000000001421
 11
631.0
 21
35.6251133647401517
 31
0.0000000000001421
  0
ARC
  5
711
  8
0
  6
AUSGEZOGEN
 62
     3
 10
60.3065996645687008
 20
44.5000000000012079
 30
0.0000000000000136
 40
8.0000000000011937
 50
237.6719358778400135
 51
270.0
  0
ARC
  5
712
  8
0
  6
AUSGEZOGEN
 62
     3
 10
60.3065996645687008
 20
-44.5000000000011298
 30
0.0000000000000136
 40
8.0000000000011582
 50
90.0000000000016769
 51
122.3280641221619049
  0
ARC
  5
713
  8
0
  6
AUSGEZOGEN
 62
     3
 10
49.6112735825832019
 20
27.6000000000010388
 30
0.0000000000000112
 40
11.99999999999892
 50
57.6719358778379387
 51
90.0000000000011511
  0
ARC
  5
714
  8
0
  6
AUSGEZOGEN
 62
     3
 10
49.6112735825832019
 20
-27.6000000000009784
 30
0.0000000000000112
 40
11.99999999999892
 50
269.9999999999988063
 51
302.3280641221620044
  0
LINE
  5
715
  8
0
  6
AUSGEZOGEN
 62
     3
 10
49.6112735825829532
 20
-39.5999999999999517
 30
0.0000000000000112
 11
32.9999999999997797
 21
-39.5999999999999517
 31
0.0000000000000074
  0
LINE
  5
716
  8
0
  6
AUSGEZOGEN
 62
     3
 10
49.6112735825829532
 20
39.5999999999999872
 30
0.0000000000000112
 11
32.9999999999997797
 21
39.5999999999999872
 31
0.0000000000000074
  0
ARC
  5
717
  8
0
  6
AUSGEZOGEN
 62
     3
 10
33.0000000000001776
 20
51.6000000000011028
 30
0.0000000000000074
 40
12.0000000000011102
 50
248.8168456069670071
 51
269.9999999999981242
  0
ARC
  5
718
  8
0
  6
AUSGEZOGEN
 62
     3
 10
33.0000000000002416
 20
-51.6000000000014012
 30
0.0000000000000074
 40
12.0000000000014602
 50
90.0000000000022453
 51
111.183154393032595
  0
ARC
  5
719
  8
0
  6
AUSGEZOGEN
 62
     3
 10
19.6299999999989083
 20
17.0999999999949885
 30
0.0000000000000044
 40
25.000093243130781
 50
68.8168456069655718
 51
89.8435140456391821
  0
ARC
  5
71A
  8
0
  6
AUSGEZOGEN
 62
     3
 10
19.6299999999990007
 20
-17.0999999999954895
 30
0.0000000000000044
 40
25.0000932431302303
 50
270.156485954360619
 51
291.1831543930347266
  0
LINE
  5
71B
  8
0
  6
AUSGEZOGEN
 62
     3
 10
19.698280048193741
 20
-42.0999999999999375
 30
0.0000000000000044
 11
10.5489224071186491
 21
-42.0999999999999375
 31
0.0000000000000024
  0
LINE
  5
71C
  8
0
  6
AUSGEZOGEN
 62
     3
 10
19.698280048193741
 20
42.0999999999999872
 30
0.0000000000000044
 11
10.5489224071186491
 21
42.0999999999999872
 31
0.0000000000000024
  0
ARC
  5
71D
  8
0
  6
AUSGEZOGEN
 62
     3
 10
10.5489224071182193
 20
17.1000000000017316
 30
0.0000000000000024
 40
24.9999999999982592
 50
89.9999999999990052
 51
114.9581963123161046
  0
ARC
  5
71E
  8
0
  6
AUSGEZOGEN
 62
     3
 10
10.5489224071181802
 20
-17.1000000000017991
 30
0.0000000000000024
 40
24.9999999999981313
 50
245.0418036876837959
 51
270.00000000000108
  0
LINE
  5
71F
  8
0
  6
AUSGEZOGEN
 62
     3
 10
73.499999999998181
 20
-36.4999999999999787
 30
0.0000000000000165
 11
60.3065996645684592
 21
-36.4999999999999787
 31
0.0000000000000136
  0
LINE
  5
720
  8
0
  6
AUSGEZOGEN
 62
     3
 10
73.499999999998181
 20
36.5000000000000213
 30
0.0000000000000165
 11
60.3065996645684592
 21
36.5000000000000213
 31
0.0000000000000136
  0
LINE
  5
721
  8
0
  6
AUSGEZOGEN
 62
     3
 10
73.4999999999982236
 20
-36.4999999999999929
 30
0.0000000000000165
 11
175.5625264963182133
 21
-36.4999999999999929
 31
0.0000000000000426
  0
LINE
  5
722
  8
0
  6
AUSGEZOGEN
 62
     3
 10
175.5625264963182133
 20
36.5000000000000426
 30
0.0000000000000426
 11
73.4999999999981952
 21
36.5000000000000426
 31
0.0000000000000165
  0
LINE
  5
723
  8
0
  6
AUSGEZOGEN
 62
     3
 10
213.4374735036801098
 20
-36.5
 30
0.0000000000000426
 11
175.5625264963182133
 21
-36.4999999999999929
 31
0.0000000000000355
  0
LINE
  5
724
  8
0
  6
AUSGEZOGEN
 62
     3
 10
213.4374735036801098
 20
36.5000000000000284
 30
0.0000000000000426
 11
175.5625264963182133
 21
36.5000000000000426
 31
0.0000000000000355
  0
LINE
  5
725
  8
0
  6
AUSGEZOGEN
 62
     3
 10
417.5625264963189238
 20
36.5000000000000213
 30
0.0000000000000995
 11
213.4374735036799962
 21
36.5000000000000213
 31
0.0000000000000426
  0
LINE
  5
726
  8
0
  6
AUSGEZOGEN
 62
     3
 10
213.4374735036799962
 20
-36.4999999999999929
 30
0.0000000000000426
 11
417.5625264963189238
 21
-36.4999999999999929
 31
0.0000000000000995
  0
LINE
  5
727
  8
0
  6
AUSGEZOGEN
 62
     3
 10
455.4374735036810762
 20
-36.4999999999999787
 30
0.0000000000000995
 11
417.5625264963188101
 21
-36.4999999999999929
 31
0.0000000000000924
  0
LINE
  5
728
  8
0
  6
AUSGEZOGEN
 62
     3
 10
455.4374735036810762
 20
36.5000000000000213
 30
0.0000000000000995
 11
417.5625264963188101
 21
36.5000000000000213
 31
0.0000000000000924
  0
LINE
  5
729
  8
0
  6
AUSGEZOGEN
 62
     3
 10
455.4374735036810762
 20
-36.4999999999999787
 30
0.0000000000000995
 11
557.5
 21
-36.4999999999999787
 31
0.0000000000001255
  0
LINE
  5
72A
  8
0
  6
AUSGEZOGEN
 62
     3
 10
557.5
 20
36.5000000000000213
 30
0.0000000000001255
 11
455.4374735036810762
 21
36.5000000000000213
 31
0.0000000000000995
  0
LINE
  5
72B
  8
0
  6
AUSGEZOGEN
 62
     3
 10
557.5
 20
36.4999999999991687
 30
0.0000000000001255
 11
620.9999999999918145
 21
36.4999999999991687
 31
0.0000000000001398
  0
LINE
  5
72C
  8
0
  6
AUSGEZOGEN
 62
     3
 10
557.5
 20
-36.4999999999991331
 30
0.0000000000001255
 11
620.9999999999918145
 21
-36.4999999999991331
 31
0.0000000000001398
  0
LINE
  5
72D
  8
0
  6
AUSGEZOGEN
 62
     3
 10
631.0
 20
-35.6251133647401019
 30
0.0000000000001421
 11
620.9999999999918145
 21
-36.4999999999982165
 31
0.0000000000001398
  0
LINE
  5
72E
  8
0
  6
AUSGEZOGEN
 62
     3
 10
631.0
 20
35.6251133647401375
 30
0.0000000000001421
 11
620.9999999999918145
 21
36.4999999999982592
 31
0.0000000000001398
  0
ARC
  5
72F
  8
0
  6
VERDECKT
 62
     1
 10
60.3065996645689282
 20
44.5000000000012221
 30
0.0000000000000136
 40
9.6000000000012804
 50
237.6719358778437936
 51
270.0
  0
ARC
  5
730
  8
0
  6
VERDECKT
 62
     1
 10
60.3065996645689069
 20
-44.5000000000011511
 30
0.0000000000000136
 40
9.6000000000012502
 50
90.0000000000027285
 51
122.3280641221589065
  0
ARC
  5
731
  8
0
  6
VERDECKT
 62
     1
 10
49.611273582582271
 20
27.5999999999971486
 30
0.0000000000000112
 40
10.4000000000027093
 50
57.6719358778413778
 51
89.9999999999962768
  0
ARC
  5
732
  8
0
  6
VERDECKT
 62
     1
 10
49.6112735825822782
 20
-27.5999999999971593
 30
0.0000000000000112
 40
10.4000000000026507
 50
270.0000000000036948
 51
302.3280641221587075
  0
LINE
  5
733
  8
0
  6
VERDECKT
 62
     1
 10
49.6112735825829532
 20
-37.9999999999999218
 30
0.0000000000000112
 11
32.9999999999997797
 21
-37.9999999999999218
 31
0.0000000000000074
  0
LINE
  5
734
  8
0
  6
VERDECKT
 62
     1
 10
49.6112735825829532
 20
37.9999999999999716
 30
0.0000000000000112
 11
32.9999999999997797
 21
37.9999999999999716
 31
0.0000000000000074
  0
ARC
  5
735
  8
0
  6
VERDECKT
 62
     1
 10
33.0000000000000284
 20
51.6000000000012591
 30
0.0000000000000074
 40
13.6000000000012893
 50
248.8168456069678882
 51
270.0
  0
ARC
  5
736
  8
0
  6
VERDECKT
 62
     1
 10
33.0000000000000071
 20
-51.6000000000010388
 30
0.0000000000000074
 40
13.6000000000011205
 50
90.0000000000010232
 51
111.1831543930333055
  0
ARC
  5
737
  8
0
  6
VERDECKT
 62
     1
 10
19.6299653661655391
 20
17.0999106307168596
 30
0.0000000000000044
 40
23.400189088685071
 50
68.8168456069659129
 51
89.8327300474290809
  0
ARC
  5
738
  8
0
  6
VERDECKT
 62
     1
 10
19.6299653661655604
 20
-17.0999106307170017
 30
0.0000000000000044
 40
23.4001890886848898
 50
270.1672699525709049
 51
291.183154393034215
  0
LINE
  5
739
  8
0
  6
VERDECKT
 62
     1
 10
19.698280048193741
 20
-40.4999999999999218
 30
0.0000000000000044
 11
10.5489224071186491
 21
-40.4999999999999218
 31
0.0000000000000024
  0
LINE
  5
73A
  8
0
  6
VERDECKT
 62
     1
 10
19.698280048193741
 20
40.4999999999999574
 30
0.0000000000000044
 11
10.5489224071186491
 21
40.4999999999999574
 31
0.0000000000000024
  0
ARC
  5
73B
  8
0
  6
VERDECKT
 62
     1
 10
10.5489224071184005
 20
17.1000000000003496
 30
0.0000000000000024
 40
23.3999999999996184
 50
89.9999999999993889
 51
116.7955779312307953
  0
ARC
  5
73C
  8
0
  6
VERDECKT
 62
     1
 10
10.5489224071184395
 20
-17.1000000000000583
 30
0.0000000000000024
 40
23.3999999999998494
 50
243.2044220687687925
 51
270.0
  0
LINE
  5
73D
  8
0
  6
VERDECKT
 62
     1
 10
73.5000000000013642
 20
-34.8999999999998991
 30
0.0000000000000165
 11
60.3065996645684592
 21
-34.8999999999998991
 31
0.0000000000000136
  0
LINE
  5
73E
  8
0
  6
VERDECKT
 62
     1
 10
73.5000000000013642
 20
34.8999999999999417
 30
0.0000000000000165
 11
60.3065996645684592
 21
34.8999999999999417
 31
0.0000000000000136
  0
LINE
  5
73F
  8
0
  6
VERDECKT
 62
     1
 10
557.5
 20
34.9000000000000412
 30
0.0000000000001255
 11
455.4374735036827815
 21
34.9000000000000412
 31
0.0000000000000995
  0
LINE
  5
740
  8
0
  6
VERDECKT
 62
     1
 10
455.4374735036828952
 20
-34.8999999999999915
 30
0.0000000000000995
 11
557.5
 21
-34.8999999999999915
 31
0.0000000000001255
  0
LINE
  5
741
  8
0
  6
VERDECKT
 62
     1
 10
417.562526496320686
 20
34.900000000000027
 30
0.0000000000000995
 11
455.4374735036828952
 21
34.9000000000000412
 31
0.0000000000001066
  0
LINE
  5
742
  8
0
  6
VERDECKT
 62
     1
 10
417.562526496320686
 20
-34.8999999999999986
 30
0.0000000000000995
 11
455.4374735036828952
 21
-34.8999999999999915
 31
0.0000000000001066
  0
LINE
  5
743
  8
0
  6
VERDECKT
 62
     1
 10
213.4374735036820141
 20
-34.8999999999999986
 30
0.0000000000000426
 11
417.5625264963201744
 21
-34.8999999999999986
 31
0.0000000000000995
  0
LINE
  5
744
  8
0
  6
VERDECKT
 62
     1
 10
417.5625264963201744
 20
34.900000000000027
 30
0.0000000000000995
 11
213.4374735036819004
 21
34.900000000000027
 31
0.0000000000000426
  0
LINE
  5
745
  8
0
  6
VERDECKT
 62
     1
 10
175.5625264963198049
 20
34.900000000000027
 30
0.0000000000000426
 11
213.4374735036817867
 21
34.9000000000000199
 31
0.0000000000000497
  0
LINE
  5
746
  8
0
  6
VERDECKT
 62
     1
 10
175.5625264963198049
 20
-34.8999999999999773
 30
0.0000000000000426
 11
213.4374735036817867
 21
-34.8999999999999915
 31
0.0000000000000497
  0
LINE
  5
747
  8
0
  6
VERDECKT
 62
     1
 10
175.5625264963198902
 20
34.9000000000000199
 30
0.0000000000000426
 11
73.5000000000013358
 21
34.9000000000000199
 31
0.0000000000000165
  0
LINE
  5
748
  8
0
  6
VERDECKT
 62
     1
 10
73.5000000000013642
 20
-34.8999999999999773
 30
0.0000000000000165
 11
175.5625264963200038
 21
-34.8999999999999773
 31
0.0000000000000426
  0
LINE
  5
749
  8
0
  6
VERDECKT
 62
     1
 10
557.5
 20
34.8999999999983501
 30
0.0000000000001255
 11
620.9301424913387564
 21
34.8999999999983501
 31
0.0000000000001398
  0
LINE
  5
74A
  8
0
  6
VERDECKT
 62
     1
 10
557.5
 20
-34.8999999999983075
 30
0.0000000000001255
 11
620.9301424913387564
 21
-34.8999999999983075
 31
0.0000000000001398
  0
LINE
  5
74B
  8
0
  6
VERDECKT
 62
     1
 10
630.9999999999996589
 20
-34.0190016246707714
 30
0.0000000000001421
 11
620.9301424913387564
 21
-34.8999999999982293
 31
0.0000000000001398
  0
LINE
  5
74C
  8
0
  6
VERDECKT
 62
     1
 10
630.9999999999996589
 20
34.0190016246708069
 30
0.0000000000001421
 11
620.9301424913387564
 21
34.899999999998272
 31
0.0000000000001398
  0
ENDBLK
  5
74E
  8
0
  0
BLOCK
  8
0
  2
A$C468A0413
 70
     0
 10
0.0
 20
0.0
 30
0.0
  3
A$C468A0413
  1

  0
LINE
  5
752
  8
0
  6
AUSGEZOGEN
 62
     3
 10
0.0
 20
39.7653973282753128
 30
-0.0000000000000088
 11
0.0
 21
-39.7653973282753128
 31
0.0000000000000088
210
0.0
220
1.0
230
-0.0000000000000002
  0
LINE
  5
753
  8
0
  6
AUSGEZOGEN
 62
     3
 10
631.0
 20
-35.6251133647401232
 30
0.0000000000000079
 11
631.0
 21
35.6251133647401232
 31
-0.0000000000000079
210
0.0
220
1.0
230
-0.0000000000000002
  0
ARC
  5
754
  8
0
  6
AUSGEZOGEN
 62
     3
 10
-60.3065996645686866
 20
44.5000000000011013
 30
0.0
 40
8.0000000000010942
210
0.0
220
-0.0000000000000002
230
-1.0
 50
270.0
 51
302.3280641221604128
  0
ARC
  5
755
  8
0
  6
AUSGEZOGEN
 62
     3
 10
-60.3065996645687008
 20
-44.5000000000011511
 30
0.0
 40
8.0000000000011529
210
0.0
220
-0.0000000000000002
230
-1.0
 50
57.6719358778380808
 51
89.9999999999983231
  0
ARC
  5
756
  8
0
  6
AUSGEZOGEN
 62
     3
 10
-49.6112735825831521
 20
27.6000000000009287
 30
0.0
 40
11.9999999999990106
210
0.0
220
-0.0000000000000002
230
-1.0
 50
89.9999999999990479
 51
122.3280641221620044
  0
ARC
  5
757
  8
0
  6
AUSGEZOGEN
 62
     3
 10
-49.6112735825831592
 20
-27.6000000000009287
 30
0.0
 40
11.9999999999990106
210
0.0
220
-0.0000000000000002
230
-1.0
 50
237.6719358778379956
 51
270.0000000000010232
  0
LINE
  5
758
  8
0
  6
AUSGEZOGEN
 62
     3
 10
49.6112735825829532
 20
-39.599999999999973
 30
0.0000000000000088
 11
32.9999999999997797
 21
-39.599999999999973
 31
0.0000000000000088
210
0.0
220
1.0
230
-0.0000000000000002
  0
LINE
  5
759
  8
0
  6
AUSGEZOGEN
 62
     3
 10
49.6112735825829532
 20
39.599999999999973
 30
-0.0000000000000088
 11
32.9999999999997797
 21
39.599999999999973
 31
-0.0000000000000088
210
0.0
220
1.0
230
-0.0000000000000002
  0
ARC
  5
75A
  8
0
  6
AUSGEZOGEN
 62
     3
 10
-33.0000000000002629
 20
51.6000000000014793
 30
0.0
 40
12.0000000000014992
210
0.0
220
-0.0000000000000002
230
-1.0
 50
270.0
 51
291.1831543930304065
  0
ARC
  5
75B
  8
0
  6
AUSGEZOGEN
 62
     3
 10
-33.0000000000002416
 20
-51.6000000000014367
 30
0.0
 40
12.0000000000014602
210
0.0
220
-0.0000000000000002
230
-1.0
 50
68.8168456069673482
 51
89.9999999999977405
  0
ARC
  5
75C
  8
0
  6
AUSGEZOGEN
 62
     3
 10
-19.6299999999989296
 20
17.0999999999951804
 30
0.0
 40
25.0000932431305785
210
0.0
220
-0.0000000000000002
230
-1.0
 50
90.1564859543607611
 51
111.1831543930344992
  0
ARC
  5
75D
  8
0
  6
AUSGEZOGEN
 62
     3
 10
-19.6299999999989296
 20
-17.0999999999951307
 30
0.0
 40
25.0000932431306211
210
0.0
220
-0.0000000000000002
230
-1.0
 50
248.8168456069655008
 51
269.8435140456392105
  0
LINE
  5
75E
  8
0
  6
AUSGEZOGEN
 62
     3
 10
19.698280048193741
 20
-42.099999999999973
 30
0.0000000000000093
 11
10.5489224071186491
 21
-42.099999999999973
 31
0.0000000000000093
210
0.0
220
1.0
230
-0.0000000000000002
  0
LINE
  5
75F
  8
0
  6
AUSGEZOGEN
 62
     3
 10
19.698280048193741
 20
42.099999999999973
 30
-0.0000000000000093
 11
10.5489224071186491
 21
42.099999999999973
 31
-0.0000000000000093
210
0.0
220
1.0
230
-0.0000000000000002
  0
ARC
  5
760
  8
0
  6
AUSGEZOGEN
 62
     3
 10
-10.5489224071181695
 20
17.1000000000018595
 30
0.0
 40
24.99999999999811
210
0.0
220
-0.0000000000000002
230
-1.0
 50
65.0418036876837817
 51
90.0000000000010942
  0
ARC
  5
761
  8
0
  6
AUSGEZOGEN
 62
     3
 10
-10.5489224071181802
 20
-17.1000000000018488
 30
0.0
 40
24.9999999999981206
210
0.0
220
-0.0000000000000002
230
-1.0
 50
270.0
 51
294.9581963123172841
  0
LINE
  5
762
  8
0
  6
AUSGEZOGEN
 62
     3
 10
73.4999999999981242
 20
-36.5000000000000071
 30
0.0000000000000081
 11
60.3065996645684592
 21
-36.5000000000000071
 31
0.0000000000000081
210
0.0
220
1.0
230
-0.0000000000000002
  0
LINE
  5
763
  8
0
  6
AUSGEZOGEN
 62
     3
 10
73.4999999999982236
 20
36.5000000000000071
 30
-0.0000000000000081
 11
60.3065996645684592
 21
36.5000000000000071
 31
-0.0000000000000081
210
0.0
220
1.0
230
-0.0000000000000002
  0
ARC
  5
764
  8
0
  6
AUSGEZOGEN
 62
     3
 10
-73.5000000000009095
 20
-121.5000000000011937
 30
0.0
 40
157.999999999999801
210
0.0
220
-0.0000000000000002
230
-1.0
 50
89.9999999999990195
 51
147.1423155031453973
  0
ARC
  5
765
  8
0
  6
AUSGEZOGEN
 62
     3
 10
73.5000000000008527
 20
-121.5000000000012932
 30
0.000000000000027
 40
84.9999999999999858
 50
32.8576844968558532
 51
90.0000000000018616
  0
LINE
  5
766
  8
0
  6
AUSGEZOGEN
 62
     3
 10
182.7767145150737917
 20
-134.0235643804354027
 30
0.0000000000000298
 11
144.9017675077118952
 21
-75.3828925801426948
 31
0.0000000000000167
210
0.0
220
1.0
230
-0.0000000000000002
  0
LINE
  5
767
  8
0
  6
AUSGEZOGEN
 62
     3
 10
244.0982324922862858
 20
-94.4171074198536644
 30
0.000000000000021
 11
206.2232854849243893
 21
-35.7764356195610134
 31
0.0000000000000079
210
0.0
220
1.0
230
-0.0000000000000002
  0
ARC
  5
768
  8
0
  6
AUSGEZOGEN
 62
     3
 10
-315.5
 20
-48.2999999999984126
 30
0.0
 40
158.0000000000005116
210
0.0
220
-0.0000000000000002
230
-1.0
 50
212.8576844968538921
 51
327.1423155031469037
  0
ARC
  5
769
  8
0
  6
AUSGEZOGEN
 62
     3
 10
315.5
 20
-48.2999999999984482
 30
0.0000000000000107
 40
85.000000000000469
 50
212.8576844968528974
 51
327.1423155031458236
  0
LINE
  5
76A
  8
0
  6
AUSGEZOGEN
 62
     3
 10
486.0982324922870816
 20
-75.3828925801443432
 30
0.0000000000000167
 11
448.2232854849248156
 21
-134.0235643804373069
 31
0.0000000000000298
210
0.0
220
1.0
230
-0.0000000000000002
  0
LINE
  5
76B
  8
0
  6
AUSGEZOGEN
 62
     3
 10
424.7767145150749002
 20
-35.7764356195623634
 30
0.0000000000000079
 11
386.901767507712691
 21
-94.4171074198552418
 31
0.000000000000021
210
0.0
220
1.0
230
-0.0000000000000002
  0
ARC
  5
76C
  8
0
  6
AUSGEZOGEN
 62
     3
 10
-557.5000000000001137
 20
-121.5000000000000995
 30
0.0
 40
158.0
210
0.0
220
-0.0000000000000002
230
-1.0
 50
32.8576844968535227
 51
89.9999999999998721
  0
ARC
  5
76D
  8
0
  6
AUSGEZOGEN
 62
     3
 10
557.5000000000003411
 20
-121.5000000000003979
 30
0.000000000000027
 40
85.0000000000003268
 50
90.0000000000002132
 51
147.1423155031463068
  0
LINE
  5
76E
  8
0
  6
AUSGEZOGEN
 62
     3
 10
557.5
 20
36.4999999999991473
 30
-0.0000000000000081
 11
620.9999999999918145
 21
36.4999999999991473
 31
-0.0000000000000081
210
0.0
220
1.0
230
-0.0000000000000002
  0
LINE
  5
76F
  8
0
  6
AUSGEZOGEN
 62
     3
 10
557.5
 20
-36.4999999999991473
 30
0.0000000000000081
 11
620.9999999999918145
 21
-36.4999999999991473
 31
0.0000000000000081
210
0.0
220
1.0
230
-0.0000000000000002
  0
LINE
  5
770
  8
0
  6
AUSGEZOGEN
 62
     3
 10
631.0
 20
-35.6251133647401232
 30
0.0000000000000079
 11
620.9999999999918145
 21
-36.4999999999982379
 31
0.0000000000000081
210
0.0
220
1.0
230
-0.0000000000000002
  0
LINE
  5
771
  8
0
  6
AUSGEZOGEN
 62
     3
 10
631.0
 20
35.6251133647401232
 30
-0.0000000000000079
 11
620.9999999999918145
 21
36.4999999999982379
 31
-0.0000000000000081
210
0.0
220
1.0
230
-0.0000000000000002
  0
ARC
  5
772
  8
0
  6
VERDECKT
 62
     1
 10
-60.3065996645689424
 20
44.500000000001279
 30
0.0
 40
9.6000000000013568
210
0.0
220
-0.0000000000000002
230
-1.0
 50
270.0
 51
302.3280641221559222
  0
ARC
  5
773
  8
0
  6
VERDECKT
 62
     1
 10
-60.3065996645689069
 20
-44.5000000000011724
 30
0.0
 40
9.6000000000012449
210
0.0
220
-0.0000000000000002
230
-1.0
 50
57.6719358778410935
 51
89.9999999999972857
  0
ARC
  5
774
  8
0
  6
VERDECKT
 62
     1
 10
-49.611273582582271
 20
27.5999999999971308
 30
0.0
 40
10.4000000000027093
210
0.0
220
-0.0000000000000002
230
-1.0
 50
90.000000000003709
 51
122.3280641221585938
  0
ARC
  5
775
  8
0
  6
VERDECKT
 62
     1
 10
-49.6112735825822782
 20
-27.5999999999971699
 30
0.0
 40
10.4000000000026702
210
0.0
220
-0.0000000000000002
230
-1.0
 50
237.6719358778412925
 51
269.9999999999964189
  0
LINE
  5
776
  8
0
  6
VERDECKT
 62
     1
 10
49.6112735825829532
 20
-37.9999999999999503
 30
0.0000000000000084
 11
32.9999999999997797
 21
-37.9999999999999503
 31
0.0000000000000084
210
0.0
220
1.0
230
-0.0000000000000002
  0
LINE
  5
777
  8
0
  6
VERDECKT
 62
     1
 10
49.6112735825829532
 20
37.9999999999999503
 30
-0.0000000000000084
 11
32.9999999999997797
 21
37.9999999999999503
 31
-0.0000000000000084
210
0.0
220
1.0
230
-0.0000000000000002
  0
ARC
  5
778
  8
0
  6
VERDECKT
 62
     1
 10
-33.0000000000000213
 20
51.6000000000011028
 30
0.0
 40
13.6000000000011401
210
0.0
220
-0.0000000000000002
230
-1.0
 50
270.0
 51
291.1831543930322823
  0
ARC
  5
779
  8
0
  6
VERDECKT
 62
     1
 10
-33.0000000000000071
 20
-51.6000000000010672
 30
0.0
 40
13.6000000000011205
210
0.0
220
-0.0000000000000002
230
-1.0
 50
68.8168456069666377
 51
89.9999999999989768
  0
ARC
  5
77A
  8
0
  6
VERDECKT
 62
     1
 10
-19.6299653661655391
 20
17.0999106307168383
 30
0.0
 40
23.400189088685071
210
0.0
220
-0.0000000000000002
230
-1.0
 50
90.1672699525709191
 51
111.1831543930341013
  0
ARC
  5
77B
  8
0
  6
VERDECKT
 62
     1
 10
-19.6299653661655
 20
-17.0999106307168312
 30
0.0
 40
23.4001890886850887
210
0.0
220
-0.0000000000000002
230
-1.0
 50
248.8168456069658134
 51
269.8327300474289814
  0
LINE
  5
77C
  8
0
  6
VERDECKT
 62
     1
 10
19.698280048193741
 20
-40.4999999999999503
 30
0.000000000000009
 11
10.5489224071186491
 21
-40.4999999999999503
 31
0.000000000000009
210
0.0
220
1.0
230
-0.0000000000000002
  0
LINE
  5
77D
  8
0
  6
VERDECKT
 62
     1
 10
19.698280048193741
 20
40.4999999999999503
 30
-0.000000000000009
 11
10.5489224071186491
 21
40.4999999999999503
 31
-0.000000000000009
210
0.0
220
1.0
230
-0.0000000000000002
  0
ARC
  5
77E
  8
0
  6
VERDECKT
 62
     1
 10
-10.54892240711842
 20
17.1000000000002004
 30
0.0
 40
23.3999999999997392
210
0.0
220
-0.0000000000000002
230
-1.0
 50
63.2044220687692828
 51
90.0000000000005542
  0
ARC
  5
77F
  8
0
  6
VERDECKT
 62
     1
 10
-10.54892240711842
 20
-17.100000000000211
 30
0.0
 40
23.3999999999997286
210
0.0
220
-0.0000000000000002
230
-1.0
 50
270.0
 51
296.7955779312313211
  0
LINE
  5
780
  8
0
  6
VERDECKT
 62
     1
 10
73.5000000000013074
 20
-34.8999999999999275
 30
0.0000000000000077
 11
60.3065996645684592
 21
-34.8999999999999275
 31
0.0000000000000077
210
0.0
220
1.0
230
-0.0000000000000002
  0
LINE
  5
781
  8
0
  6
VERDECKT
 62
     1
 10
73.5000000000014211
 20
34.8999999999999275
 30
-0.0000000000000077
 11
60.3065996645684592
 21
34.8999999999999275
 31
-0.0000000000000077
210
0.0
220
1.0
230
-0.0000000000000002
  0
ARC
  5
782
  8
0
  6
VERDECKT
 62
     1
 10
-557.5000000000022737
 20
-121.4999999999989058
 30
0.0
 40
156.3999999999990962
210
0.0
220
-0.0000000000000002
230
-1.0
 50
32.857684496852869
 51
89.9999999999992042
  0
ARC
  5
783
  8
0
  6
VERDECKT
 62
     1
 10
557.5000000000023874
 20
-121.4999999999991047
 30
0.000000000000027
 40
86.5999999999993264
 50
90.0000000000015774
 51
147.1423155031476995
  0
LINE
  5
784
  8
0
  6
VERDECKT
 62
     1
 10
388.2458007784479719
 20
-95.2851941477593982
 30
0.0000000000000212
 11
426.1207477858102948
 21
-36.6445223474664132
 31
0.0000000000000081
210
0.0
220
1.0
230
-0.0000000000000002
  0
LINE
  5
785
  8
0
  6
VERDECKT
 62
     1
 10
446.8792522141934001
 20
-133.1554776525350974
 30
0.0000000000000296
 11
484.7541992215557229
 21
-74.5148058522422048
 31
0.0000000000000165
210
0.0
220
1.0
230
-0.0000000000000002
  0
ARC
  5
786
  8
0
  6
VERDECKT
 62
     1
 10
-315.5000000000014779
 20
-48.2999999999994003
 30
0.0
 40
156.4000000000002046
210
0.0
220
-0.0000000000000002
230
-1.0
 50
212.8576844968538069
 51
327.14231550314679
  0
ARC
  5
787
  8
0
  6
VERDECKT
 62
     1
 10
315.5000000000015916
 20
-48.2999999999993079
 30
0.0000000000000107
 40
86.6000000000001648
 50
212.8576844968528974
 51
327.1423155031458236
  0
LINE
  5
788
  8
0
  6
VERDECKT
 62
     1
 10
204.8792522141926042
 20
-36.6445223474650206
 30
0.0000000000000081
 11
242.7541992215545008
 21
-95.285194147757764
 31
0.0000000000000212
210
0.0
220
1.0
230
-0.0000000000000002
  0
LINE
  5
789
  8
0
  6
VERDECKT
 62
     1
 10
146.2458007784470908
 20
-74.5148058522406274
 30
0.0000000000000165
 11
184.1207477858091011
 21
-133.1554776525333921
 31
0.0000000000000296
210
0.0
220
1.0
230
-0.0000000000000002
  0
ARC
  5
78A
  8
0
  6
VERDECKT
 62
     1
 10
-73.5000000000011795
 20
-121.4999999999994031
 30
0.0
 40
156.3999999999998067
210
0.0
220
-0.0000000000000002
230
-1.0
 50
90.0000000000000711
 51
147.1423155031463921
  0
ARC
  5
78B
  8
0
  6
VERDECKT
 62
     1
 10
73.5000000000011369
 20
-121.4999999999996021
 30
0.000000000000027
 40
86.5999999999999091
 50
32.8576844968536577
 51
89.9999999999998721
  0
LINE
  5
78C
  8
0
  6
VERDECKT
 62
     1
 10
557.5
 20
34.899999999998343
 30
-0.0000000000000077
 11
620.9301424913387564
 21
34.899999999998343
 31
-0.0000000000000077
210
0.0
220
1.0
230
-0.0000000000000002
  0
LINE
  5
78D
  8
0
  6
VERDECKT
 62
     1
 10
557.5
 20
-34.899999999998343
 30
0.0000000000000077
 11
620.9301424913387564
 21
-34.899999999998343
 31
0.0000000000000077
210
0.0
220
1.0
230
-0.0000000000000002
  0
LINE
  5
78E
  8
0
  6
VERDECKT
 62
     1
 10
630.9999999999996589
 20
-34.0190016246707927
 30
0.0000000000000076
 11
620.9301424913387564
 21
-34.8999999999982577
 31
0.0000000000000077
210
0.0
220
1.0
230
-0.0000000000000002
  0
LINE
  5
78F
  8
0
  6
VERDECKT
 62
     1
 10
630.9999999999996589
 20
34.0190016246707927
 30
-0.0000000000000076
 11
620.9301424913387564
 21
34.8999999999982577
 31
-0.0000000000000077
210
0.0
220
1.0
230
-0.0000000000000002
  0
ENDBLK
  5
791
  8
0
  0
ENDSEC
  0
SECTION
  2
ENTITIES
  0
TEXT
  5
12A
  8
VOLL
 10
78.076754716981128
 20
31.025947764705851
 30
0.0
 40
1.8
  1

  7
GREEKS
  0
TEXT
  5
12B
  8
TEXT
 10
409.9090229205739888
 20
36.5841832979313892
 30
0.0
 40
2.5
  1
  
  7
GREEKS
 72
     1
 11
412.1709276824788049
 21
36.5841832979313892
 31
0.0
  0
TEXT
  5
12C
  8
BEM
 10
654.0287402330560553
 20
172.1430653283335914
 30
0.0
 40
2.5
  1
 
 72
     4
 11
655.1596926140083497
 21
172.1430653283335914
 31
0.0
  0
TEXT
  5
140
  8
VOLL
 10
235.6114717941426875
 20
36.5815033997770485
 30
0.0
 40
1.8
  1

  7
GREEKS
  0
TEXT
  5
141
  8
BEM
 10
270.0995366334273058
 20
41.3072277229976521
 30
0.0
 40
2.5
  1

 41
0.8
  7
GREEKS
  0
TEXT
  5
142
  8
BEM
 10
270.0995366334273058
 20
36.6134591689454965
 30
0.0
 40
2.5
  1

 41
0.8
  7
GREEKS
  0
TEXT
  5
143
  8
BEM
 10
270.0995366334273058
 20
31.3756153502820005
 30
0.0
 40
2.5
  1

 41
0.8
  7
GREEKS
  0
TEXT
  5
144
  8
BEM
 10
270.0265921560529137
 20
26.8704264001843711
 30
0.0
 40
1.8
  1

 41
0.8
  7
GREEKS
  0
TEXT
  5
145
  8
TEXT
 10
567.4437399977356336
 20
42.1397389330025902
 30
0.0
 40
2.5
  1
  
  7
GREEKS
 72
     1
 11
569.7056447596404496
 21
42.1397389330025902
 31
0.0
  0
TEXT
  5
146
  8
BEM
 10
811.5634573102174727
 20
177.6986209634048066
 30
0.0
 40
2.5
  1
 
 72
     4
 11
812.6944096911698807
 21
177.6986209634048066
 31
0.0
  0
INSERT
  5
74F
  8
0
  6
AUSGEZOGEN
  2
A$C45EB5291
 10
0.0000000000004547
 20
0.0000000000000238
 30
0.0
  0
INSERT
  5
792
  8
0
  6
AUSGEZOGEN
  2
A$C468A0413
 10
0.0000000000004547
 20
329.7241280072631753
 30
0.0
  0
VIEWPORT
  5
57C
 67
     1
  8
0
  6
AUSGEZOGEN
 10
9.5012777475037922
 20
3.8071876551790762
 30
0.0
 40
22.6848756016415685
 41
12.04945978575258
 68
     1
 69
     1
1001
ACAD
1000
MVIEW
1002
{
1070
    16
1010
0.0
1020
0.0
1030
0.0
1010
0.0
1020
0.0
1030
1.0
1040
0.0
1040
12.04945978575258
1040
9.5012777475037922
1040
3.8071876551790762
1040
50.0
1040
0.0
1040
0.0
1070
     0
1070
 10000
1070
     1
1070
     1
1070
     0
1070
     0
1070
     0
1070
     0
1040
0.0
1040
0.0
1040
0.0
1040
10.0
1040
10.0
1040
10.0
1040
10.0
1070
     0
1002
{
1002
}
1002
}
  0
ENDSEC
  0
EOF
