  0
SECTION
  2
HEADER
  9
$ACADVER
  1
AC1009
  9
$INSBASE
 10
0.0
 20
0.0
 30
0.0
  9
$EXTMIN
 10
-107.4999999999995026
 20
-75.9999999999996447
 30
54.9999999999999076
  9
$EXTMAX
 10
44.5000000000005187
 20
255.9998957656646041
 30
84.2909999999999542
  9
$LIMMIN
 10
0.0
 20
0.0
  9
$LIMMAX
 10
420.0
 20
594.0
  9
$ORTHOMODE
 70
     1
  9
$REGENMODE
 70
     1
  9
$FILLMODE
 70
     1
  9
$QTEXTMODE
 70
     0
  9
$MIRRTEXT
 70
     1
  9
$DRAGMODE
 70
     2
  9
$LTSCALE
 40
20.0
  9
$OSMODE
 70
  1327
  9
$ATTMODE
 70
     1
  9
$TEXTSIZE
 40
3.5
  9
$TRACEWID
 40
0.5
  9
$TEXTSTYLE
  7
STANDARD
  9
$CLAYER
  8
MITTEL
  9
$CELTYPE
  6
BYLAYER
  9
$CECOLOR
 62
   256
  9
$DIMSCALE
 40
2.0
  9
$DIMASZ
 40
3.5
  9
$DIMEXO
 40
1.0
  9
$DIMDLI
 40
7.0
  9
$DIMRND
 40
0.0
  9
$DIMDLE
 40
0.0
  9
$DIMEXE
 40
1.0
  9
$DIMTP
 40
0.0
  9
$DIMTM
 40
0.0
  9
$DIMTXT
 40
3.5
  9
$DIMCEN
 40
1.5
  9
$DIMTSZ
 40
0.0
  9
$DIMTOL
 70
     0
  9
$DIMLIM
 70
     0
  9
$DIMTIH
 70
     0
  9
$DIMTOH
 70
     0
  9
$DIMSE1
 70
     0
  9
$DIMSE2
 70
     0
  9
$DIMTAD
 70
     1
  9
$DIMZIN
 70
     8
  9
$DIMBLK
  1

  9
$DIMASO
 70
     1
  9
$DIMSHO
 70
     0
  9
$DIMPOST
  1

  9
$DIMAPOST
  1

  9
$DIMALT
 70
     0
  9
$DIMALTD
 70
     2
  9
$DIMALTF
 40
25.3999999999999986
  9
$DIMLFAC
 40
1.0
  9
$DIMTOFL
 70
     1
  9
$DIMTVP
 40
0.0
  9
$DIMTIX
 70
     0
  9
$DIMSOXD
 70
     0
  9
$DIMSAH
 70
     0
  9
$DIMBLK1
  1

  9
$DIMBLK2
  1

  9
$DIMSTYLE
  2
STANDARD
  9
$DIMCLRD
 70
     0
  9
$DIMCLRE
 70
     0
  9
$DIMCLRT
 70
     1
  9
$DIMTFAC
 40
0.5142857142857143
  9
$DIMGAP
 40
1.5
  9
$LUNITS
 70
     2
  9
$LUPREC
 70
     2
  9
$SKETCHINC
 40
1.0
  9
$FILLETRAD
 40
0.0
  9
$AUNITS
 70
     0
  9
$AUPREC
 70
     0
  9
$MENU
  1
ACAD
  9
$ELEVATION
 40
0.0
  9
$PELEVATION
 40
0.0
  9
$THICKNESS
 40
0.0
  9
$LIMCHECK
 70
     0
  9
$BLIPMODE
 70
     0
  9
$CHAMFERA
 40
0.0
  9
$CHAMFERB
 40
0.0
  9
$SKPOLY
 70
     0
  9
$TDCREATE
 40
2452485.4116666670888662
  9
$TDUPDATE
 40
2458382.3521180548705161
  9
$TDINDWG
 40
0.3481927199
  9
$TDUSRTIMER
 40
0.3481927199
  9
$USRTIMER
 70
     1
  9
$ANGBASE
 50
0.0
  9
$ANGDIR
 70
     0
  9
$PDMODE
 70
     0
  9
$PDSIZE
 40
0.0
  9
$PLINEWID
 40
0.0
  9
$COORDS
 70
     1
  9
$SPLFRAME
 70
     0
  9
$SPLINETYPE
 70
     6
  9
$SPLINESEGS
 70
     8
  9
$ATTDIA
 70
     0
  9
$ATTREQ
 70
     0
  9
$HANDLING
 70
     1
  9
$HANDSEED
  5
33AC
  9
$SURFTAB1
 70
     6
  9
$SURFTAB2
 70
     6
  9
$SURFTYPE
 70
     6
  9
$SURFU
 70
     6
  9
$SURFV
 70
     6
  9
$UCSNAME
  2

  9
$UCSORG
 10
0.0
 20
0.0
 30
0.0
  9
$UCSXDIR
 10
1.0
 20
0.0
 30
0.0
  9
$UCSYDIR
 10
0.0
 20
1.0
 30
0.0
  9
$PUCSNAME
  2

  9
$PUCSORG
 10
0.0
 20
0.0
 30
0.0
  9
$PUCSXDIR
 10
1.0
 20
0.0
 30
0.0
  9
$PUCSYDIR
 10
0.0
 20
1.0
 30
0.0
  9
$USERI1
 70
     0
  9
$USERI2
 70
     0
  9
$USERI3
 70
     0
  9
$USERI4
 70
     0
  9
$USERI5
 70
     0
  9
$USERR1
 40
0.0
  9
$USERR2
 40
0.0
  9
$USERR3
 40
0.0
  9
$USERR4
 40
0.0
  9
$USERR5
 40
0.0
  9
$WORLDVIEW
 70
     1
  9
$SHADEDGE
 70
     3
  9
$SHADEDIF
 70
    70
  9
$TILEMODE
 70
     1
  9
$MAXACTVP
 70
    16
  9
$PLIMCHECK
 70
     0
  9
$PEXTMIN
 10
1.0000000000000000E+20
 20
1.0000000000000000E+20
 30
1.0000000000000000E+20
  9
$PEXTMAX
 10
-1.0000000000000000E+20
 20
-1.0000000000000000E+20
 30
-1.0000000000000000E+20
  9
$PLIMMIN
 10
-173.2883621360352038
 20
236.0640104982522871
  9
$PLIMMAX
 10
246.7116378639647962
 20
830.0640104982522871
  9
$UNITMODE
 70
     0
  9
$VISRETAIN
 70
     0
  9
$PLINEGEN
 70
     0
  9
$PSLTSCALE
 70
     0
  0
ENDSEC
  0
SECTION
  2
TABLES
  0
TABLE
  2
VPORT
 70
     1
  0
VPORT
  2
*ACTIVE
 70
     0
 10
0.0
 20
0.0
 11
1.0
 21
1.0
 12
0.0000000000003126
 22
49.9972699653519967
 13
0.0
 23
0.0
 14
1.0
 24
1.0
 15
20.0
 25
20.0
 16
-0.0000000000001599
 26
0.0
 36
721.3898212046483422
 17
-31.4999999999997691
 27
40.0026779174804616
 37
69.6454999999999131
 40
334.4836855095470014
 41
1.8826466916354549
 42
50.0
 43
0.0
 44
0.0
 50
0.0
 51
0.0
 71
     0
 72
  1500
 73
     1
 74
     0
 75
     0
 76
     0
 77
     0
 78
     0
  0
ENDTAB
  0
TABLE
  2
LTYPE
 70
     7
  0
LTYPE
  2
CONTINUOUS
 70
     0
  3
Solid line
 72
    65
 73
     0
 40
0.0
  0
LTYPE
  2
STRICHPUNKT
 70
     0
  3
__ . __ . __ . __ . __ . __ . __ . __ . __ . __
 72
    65
 73
     4
 40
1.0
 49
0.5
 49
-0.25
 49
0.0
 49
-0.25
  0
LTYPE
  2
PHANTOM2
 70
     0
  3
Phantom (.5x) ___ _ _ ___ _ _ ___ _ _ ___ _ _
 72
    65
 73
     6
 40
1.25
 49
0.625
 49
-0.125
 49
0.125
 49
-0.125
 49
0.125
 49
-0.125
  0
LTYPE
  2
VERDECKT
 70
     0
  3
Verdeckt __ __ __ __ __ __ __ __ __ __ __ __ __
 72
    65
 73
     2
 40
0.375
 49
0.25
 49
-0.125
  0
ENDTAB
  0
TABLE
  2
LAYER
 70
    16
  0
LAYER
  2
0
 70
     0
 62
     7
  6
CONTINUOUS
  0
LAYER
  2
VOLL
 70
     0
 62
     1
  6
CONTINUOUS
  0
LAYER
  2
MITTEL
 70
     0
 62
     2
  6
STRICHPUNKT
  0
LAYER
  2
DEFPOINTS
 70
     0
 62
     7
  6
CONTINUOUS
  0
LAYER
  2
ADSK_ASSOC_ENTITY_BACKUPS
 70
     1
 62
    -7
  6
CONTINUOUS
  0
ENDTAB
  0
TABLE
  2
STYLE
 70
     4
  0
STYLE
  2
STANDARD
 70
     0
 40
0.0
 41
0.8
 50
0.0
 71
     0
 42
3.5
  3
simplex.shx
  4

  0
STYLE
  2
GREEKS
 70
     0
 40
0.0
 41
0.8
 50
0.0
 71
     0
 42
2.5
  3
SIMPLEX.shx
  4

  0
ENDTAB
  0
TABLE
  2
VIEW
 70
     2
  0
ENDTAB
  0
TABLE
  2
UCS
 70
     0
  0
ENDTAB
  0
TABLE
  2
APPID
 70
    19
  0
APPID
  2
ACAD
 70
     0
  0
APPID
  2
ACAD_EXEMPT_FROM_CAD_STANDARDS
 70
     0
  0
APPID
  2
ACAD_MLEADERVER
 70
     0
  0
APPID
  2
ACAD_NAV_VCDISPLAY
 70
     0
  0
APPID
  2
ACAD_PSEXT
 70
     0
  0
APPID
  2
ACAD_DSTYLE_DIMRADIAL_EXTENSION
 70
     0
  0
APPID
  2
GRADIENTCOLOR1ACI
 70
     0
  0
APPID
  2
GRADIENTCOLOR2ACI
 70
     0
  0
APPID
  2
ACADANNOMONITORALERTICONDI
 70
     0
  0
APPID
  2
ACAECLAYERSTANDARD
 70
     0
  0
APPID
  2
ACCMTRANSPARENCY
 70
     0
  0
APPID
  2
ACSYNERGY
 70
     0
  0
APPID
  2
SYNERGY_BODY_TBR_ID
 70
     0
  0
APPID
  2
ACAD_VIEW_EDGE_ID
 70
     0
  0
APPID
  2
ACSYNERGYSKETCH
 70
     0
  0
APPID
  2
ACAD_MODELDOC_XFORM
 70
     0
  0
APPID
  2
ACAD_DIMASSOC_CALC_DIMLFAC
 70
     0
  0
APPID
  2
ACAD_DIMASSOC_DIMLFAC
 70
     0
  0
APPID
  2
ACAD_DIMASSOC_OVERRIDDEN_D
 70
     0
  0
ENDTAB
  0
TABLE
  2
DIMSTYLE
 70
     2
  0
DIMSTYLE
  2
STANDARD
 70
     0
  3

  4

  5

  6

  7

 40
1.0
 41
0.18
 42
0.0625
 43
0.38
 44
0.18
 45
0.0
 46
0.0
 47
0.0
 48
0.0
140
0.18
141
0.09
142
0.0
143
25.3999999999999986
144
1.0
145
0.0
146
1.0
147
0.09
 71
     0
 72
     0
 73
     1
 74
     1
 75
     0
 76
     0
 77
     0
 78
     0
170
     0
171
     2
172
     0
173
     0
174
     0
175
     0
176
     0
177
     0
178
     0
  0
ENDTAB
  0
ENDSEC
  0
SECTION
  2
BLOCKS
  0
BLOCK
  8
0
  2
$MODEL_SPACE
 70
     0
 10
0.0
 20
0.0
 30
0.0
  3
$MODEL_SPACE
  1

  0
ENDBLK
  5
249
  8
0
  0
BLOCK
 67
     1
  8
0
  2
$PAPER_SPACE
 70
     0
 10
0.0
 20
0.0
 30
0.0
  3
$PAPER_SPACE
  1

  0
ENDBLK
  5
247
 67
     1
  8
0
  0
BLOCK
  8
0
  2
*S0
 70
     1
 10
0.0
 20
0.0
 30
0.0
  3
*S0
  1

  0
ENDBLK
  5
2956
  8
0
  0
BLOCK
  8
0
  2
A$C00502DB4
 70
     0
 10
0.0
 20
0.0
 30
0.0
  3
A$C00502DB4
  1

  0
CIRCLE
  5
3298
  8
0
  6
CONTINUOUS
 62
     3
 10
-59.9999999999998366
 20
0.0000000000000045
 30
0.0
 40
42.0999999999999588
  0
CIRCLE
  5
3299
  8
0
  6
CONTINUOUS
 62
     3
 10
-59.9999999999998366
 20
0.0000000000000052
 30
0.0
 40
39.7653973282753697
  0
CIRCLE
  5
329A
  8
0
  6
CONTINUOUS
 62
     3
 10
-59.9999999999998224
 20
0.0000000000000034
 30
0.0000000000000142
 40
37.9999999999999503
  0
CIRCLE
  5
329B
  8
0
  6
CONTINUOUS
 62
     3
 10
-59.9999999999998366
 20
0.0000000000000051
 30
0.0
 40
38.3148118992656421
  0
CIRCLE
  5
329C
  8
0
  6
CONTINUOUS
 62
     3
 10
-59.999999999999801
 20
0.0000000000000006
 30
0.0000000000000142
 40
35.0
  0
CIRCLE
  5
329D
  8
0
  6
CONTINUOUS
 62
     3
 10
-31.499999999999801
 20
0.0000000000000001
 30
0.0
 40
71.5
  0
CIRCLE
  5
329E
  8
0
  6
CONTINUOUS
 62
     3
 10
-31.4999999999997407
 20
0.0000000000000068
 30
0.0
 40
76.0
  0
ARC
  5
329F
  8
0
  6
CONTINUOUS
 62
     3
 10
0.0000000000002573
 20
-0.0000000000000141
 30
0.0
 40
34.9000000000000412
 50
149.0849295067027072
 51
179.9999999999998863
  0
ARC
  5
32A0
  8
0
  6
CONTINUOUS
 62
     3
 10
0.0000000000002537
 20
0.0000000000000117
 30
0.0
 40
34.9000000000000412
 50
180.0
 51
210.9150704932972076
  0
ARC
  5
32A1
  8
0
  6
CONTINUOUS
 62
     3
 10
-0.0000000000004548
 20
0.0000000000002727
 30
0.0
 40
34.2997795784407273
 50
149.6382983121185077
 51
180.0
  0
ARC
  5
32A2
  8
0
  6
CONTINUOUS
 62
     3
 10
-0.000000000001478
 20
-0.0000000000004227
 30
0.0
 40
34.299779578439697
 50
179.9999999999992895
 51
210.3617016878818049
  0
ARC
  5
32A3
  8
0
  6
CONTINUOUS
 62
     3
 10
-31.49999999999865
 20
-0.0000000000002607
 30
0.0
 40
63.1441762133707698
 50
173.2726667938688934
 51
179.9999999999996874
  0
ARC
  5
32A4
  8
0
  6
CONTINUOUS
 62
     3
 10
-31.4999999999967208
 20
0.0000000000003071
 30
0.0
 40
63.1441762133727025
 50
180.000000000000199
 51
186.7273332061309077
  0
CIRCLE
  5
32A5
  8
0
  6
CONTINUOUS
 62
     3
 10
-31.499999999999801
 20
0.0000000000000097
 30
0.0
 40
74.5
  0
CIRCLE
  5
32A6
  8
0
  6
VERDECKT
 62
     1
 10
-59.9999999999998224
 20
0.0000000000000034
 30
0.0000000000000142
 40
39.5999999999999091
  0
CIRCLE
  5
32A7
  8
0
  6
VERDECKT
 62
     1
 10
-59.9999999999998366
 20
0.0000000000000045
 30
0.0
 40
40.4999999999999574
  0
CIRCLE
  5
32A8
  8
0
  6
VERDECKT
 62
     1
 10
-31.4999999999997407
 20
0.0000000000000068
 30
0.0
 40
73.5
  0
CIRCLE
  5
32A9
  8
0
  6
VERDECKT
 62
     1
 10
-31.4999999999997407
 20
0.0000000000000075
 30
0.0
 40
70.4926753298146025
  0
CIRCLE
  5
32AA
  8
0
  6
VERDECKT
 62
     1
 10
-31.4999999999997407
 20
0.0000000000000076
 30
0.0
 40
72.7584447974062414
  0
CIRCLE
  5
32AB
  8
0
  6
VERDECKT
 62
     1
 10
-31.49999999999973
 20
0.000000000000005
 30
0.0
 40
68.999553268413635
  0
ARC
  5
32AC
  8
0
  6
VERDECKT
 62
     1
 10
0.0000000000002217
 20
-0.0000000000000123
 30
0.0
 40
34.9000000000000128
 50
210.9150704932972076
 51
149.0849295067027072
  0
CIRCLE
  5
32AD
  8
0
  6
VERDECKT
 62
     1
 10
0.0000000000002151
 20
0.0000000000000221
 30
0.0
 40
36.5000000000002274
  0
CIRCLE
  5
32AE
  8
0
  6
VERDECKT
 62
     1
 10
0.0
 20
0.0000000000000187
 30
0.0
 40
35.8936910953878368
  0
ARC
  5
32AF
  8
0
  6
VERDECKT
 62
     1
 10
0.0
 20
0.0000000000001821
 30
0.0
 40
34.2997795784411821
 50
210.3617016878814923
 51
149.6382983121191899
  0
CIRCLE
  5
32B0
  8
0
  6
VERDECKT
 62
     1
 10
-31.499999999999801
 20
0.0000000000000257
 30
0.0
 40
66.5
  0
CIRCLE
  5
32B1
  8
0
  6
VERDECKT
 62
     1
 10
-31.4999999999997904
 20
0.0000000000000226
 30
0.0000000000000071
 40
65.634662958599165
  0
ARC
  5
32B2
  8
0
  6
VERDECKT
 62
     1
 10
-31.4999999999997904
 20
-0.0000000000000333
 30
0.0
 40
63.1441762133696187
 50
186.7273332061309077
 51
173.2726667938690071
  0
CIRCLE
  5
32B3
  8
0
  6
VERDECKT
 62
     1
 10
-31.499999999999801
 20
0.0000000000000257
 30
0.0
 40
63.9999999999999503
  0
CIRCLE
  5
32B4
  8
0
  6
VERDECKT
 62
     1
 10
-31.4999999999997904
 20
0.0000000000000083
 30
0.0
 40
73.4984603023514751
  0
CIRCLE
  5
32B5
  8
0
  6
VERDECKT
 62
     1
 10
-31.4999999999997904
 20
0.0000000000000089
 30
0.0
 40
73.5
  0
CIRCLE
  5
32B6
  8
0
  6
VERDECKT
 62
     1
 10
-31.4999999999997904
 20
0.0000000000000089
 30
0.0
 40
73.4675869783184083
  0
CIRCLE
  5
32B7
  8
0
  6
VERDECKT
 62
     1
 10
-31.499999999999801
 20
0.0000000000000096
 30
0.0
 40
69.0
  0
CIRCLE
  5
32B8
  8
0
  6
VERDECKT
 62
     1
 10
-31.499999999999801
 20
0.0000000000000095
 30
0.0
 40
70.4801488286690301
  0
CIRCLE
  5
32B9
  8
0
  6
VERDECKT
 62
     1
 10
-31.4999999999997904
 20
0.0000000000000092
 30
0.0
 40
72.3000000000000682
  0
CIRCLE
  5
32BA
  8
0
  6
VERDECKT
 62
     1
 10
-31.4999999999997904
 20
0.0000000000000087
 30
0.0
 40
72.5
  0
CIRCLE
  5
32BB
  8
0
  6
VERDECKT
 62
     1
 10
-31.4999999999997904
 20
0.0000000000000083
 30
0.0
 40
72.7000000000000455
  0
CIRCLE
  5
32BC
  8
0
  6
VERDECKT
 62
     1
 10
-31.4999999999997904
 20
0.0000000000000085
 30
0.0
 40
69.7000000000000455
  0
CIRCLE
  5
32BD
  8
0
  6
VERDECKT
 62
     1
 10
-31.4999999999997904
 20
0.0000000000000085
 30
0.0
 40
69.1568542494921985
  0
CIRCLE
  5
32BE
  8
0
  6
VERDECKT
 62
     1
 10
-31.4999999999997904
 20
0.0000000000000081
 30
0.0
 40
67.3514204588137773
  0
ENDBLK
  5
32C0
  8
0
  0
BLOCK
  8
0
  2
A$C63F40ADC
 70
     0
 10
0.0
 20
0.0
 30
0.0
  3
A$C63F40ADC
  1

  0
LINE
  5
32C4
  8
0
  6
CONTINUOUS
 62
     3
 10
-99.7653973282751849
 20
155.9998957656644905
 30
-0.0000000000000346
 11
-20.2346026717244314
 21
155.9998957656644905
 31
-0.0000000000000346
210
0.0
220
1.0
230
-0.0000000000000002
  0
ARC
  5
32C5
  8
0
  6
CONTINUOUS
 62
     3
 10
77.0999999999994827
 20
145.4509733585460083
 30
0.0
 40
25.00000000000027
210
0.0
220
-0.0000000000000002
230
-1.0
 50
0.0000000000003944
 51
24.9581963123147688
  0
ARC
  5
32C6
  8
0
  6
CONTINUOUS
 62
     3
 10
42.8999999999997996
 20
145.4509733585460936
 30
0.0
 40
24.9999999999999609
210
0.0
220
-0.0000000000000002
230
-1.0
 50
155.0418036876849897
 51
179.9999999999996874
  0
LINE
  5
32C7
  8
0
  6
CONTINUOUS
 62
     3
 10
-17.8999999999998209
 20
145.4509733585462072
 30
-0.0000000000000323
 11
-17.8999999999998209
 21
140.6316157174632053
 31
-0.0000000000000312
210
0.0
220
1.0
230
-0.0000000000000002
  0
LINE
  5
32C8
  8
0
  6
CONTINUOUS
 62
     3
 10
-102.0999999999997954
 20
145.4509733585462072
 30
-0.0000000000000323
 11
-102.0999999999997954
 21
140.6316157174632053
 31
-0.0000000000000312
210
0.0
220
1.0
230
-0.0000000000000002
  0
ARC
  5
32C9
  8
0
  6
CONTINUOUS
 62
     3
 10
77.1000000000134094
 20
140.6998957656622053
 30
0.0
 40
25.0000932431121505
210
0.0
220
-0.0000000000000002
230
-1.0
 50
338.8168456069597028
 51
359.843514045629604
  0
ARC
  5
32CA
  8
0
  6
CONTINUOUS
 62
     3
 10
42.8999999999869033
 20
140.6998957656622906
 30
0.0
 40
25.0000932431128717
210
0.0
220
-0.0000000000000002
230
-1.0
 50
180.1564859543707939
 51
201.183154393040013
  0
ARC
  5
32CB
  8
0
  6
CONTINUOUS
 62
     3
 10
111.5999999999982037
 20
127.3298957656647019
 30
0.0
 40
11.9999999999985203
210
0.0
220
-0.0000000000000002
230
-1.0
 50
158.8168456069595891
 51
179.9999999999998863
  0
ARC
  5
32CC
  8
0
  6
CONTINUOUS
 62
     3
 10
8.4000000000012633
 20
127.3298957656648014
 30
0.0
 40
11.9999999999986198
210
0.0
220
-0.0000000000000002
230
-1.0
 50
0.0
 51
21.1831543930401693
  0
LINE
  5
32CD
  8
0
  6
CONTINUOUS
 62
     3
 10
-20.3999999999998494
 20
127.3298957656648014
 30
-0.0000000000000283
 11
-20.3999999999998494
 21
115.9998957656645047
 31
-0.0000000000000258
210
0.0
220
1.0
230
-0.0000000000000002
  0
LINE
  5
32CE
  8
0
  6
CONTINUOUS
 62
     3
 10
-99.5999999999997385
 20
127.3298957656647019
 30
-0.0000000000000283
 11
-99.5999999999997385
 21
115.9998957656645047
 31
-0.0000000000000258
210
0.0
220
1.0
230
-0.0000000000000002
  0
LINE
  5
32CF
  8
0
  6
CONTINUOUS
 62
     3
 10
40.0000000000002274
 20
115.9998957656645047
 30
-0.0000000000000258
 11
-102.999999999999801
 21
115.9998957656645047
 31
-0.0000000000000258
210
0.0
220
1.0
230
-0.0000000000000002
  0
LINE
  5
32D0
  8
0
  6
CONTINUOUS
 62
     3
 10
-102.999999999999801
 20
113.9998957656645047
 30
-0.0000000000000253
 11
40.0000000000002274
 21
113.9998957656645047
 31
-0.0000000000000253
210
0.0
220
1.0
230
-0.0000000000000002
  0
LINE
  5
32D1
  8
0
  6
CONTINUOUS
 62
     3
 10
40.0000000000002274
 20
115.9998957656645047
 30
-0.0000000000000258
 11
40.0000000000002274
 21
113.9998957656645047
 31
-0.0000000000000253
210
0.0
220
1.0
230
-0.0000000000000002
  0
LINE
  5
32D2
  8
0
  6
CONTINUOUS
 62
     3
 10
-102.999999999999801
 20
115.9998957656645047
 30
-0.0000000000000258
 11
-102.999999999999801
 21
113.9998957656645047
 31
-0.0000000000000253
210
0.0
220
1.0
230
-0.0000000000000002
  0
LINE
  5
32D3
  8
0
  6
CONTINUOUS
 62
     3
 10
40.0000000000002771
 20
56.9999999999999503
 30
-0.0000000000000127
 11
-102.9999999999997016
 21
56.9999999999999503
 31
-0.0000000000000127
210
0.0
220
1.0
230
-0.0000000000000002
  0
LINE
  5
32D4
  8
0
  6
CONTINUOUS
 62
     3
 10
41.2584447974065185
 20
107.0
 30
-0.0000000000000238
 11
41.6892336110989632
 21
106.0761704077583971
 31
-0.0000000000000236
210
0.0
220
1.0
230
-0.0000000000000002
  0
LINE
  5
32D5
  8
0
  6
CONTINUOUS
 62
     3
 10
-104.2584447974059003
 20
107.0
 30
-0.0000000000000238
 11
-104.6892336110984019
 21
106.0761704077583971
 31
-0.0000000000000236
210
0.0
220
1.0
230
-0.0000000000000002
  0
ARC
  5
32D6
  8
0
  6
CONTINUOUS
 62
     3
 10
77.4999999999994884
 20
93.3976225555356194
 30
0.0
 40
30.0000000000002309
210
0.0
220
-0.0000000000000002
230
-1.0
 50
0.0000000000001654
 51
25.0000000000036486
  0
ARC
  5
32D7
  8
0
  6
CONTINUOUS
 62
     3
 10
-14.5000000000004796
 20
93.3976225555356905
 30
0.0
 40
29.9999999999998117
210
0.0
220
-0.0000000000000002
230
-1.0
 50
154.9999999999961062
 51
180.0
  0
LINE
  5
32D8
  8
0
  6
CONTINUOUS
 62
     3
 10
44.5000000000002771
 20
93.3976225555357047
 30
-0.0000000000000207
 11
44.5000000000002771
 21
84.2909999999999542
 31
-0.0000000000000187
210
0.0
220
1.0
230
-0.0000000000000002
  0
LINE
  5
32D9
  8
0
  6
CONTINUOUS
 62
     3
 10
-107.4999999999997016
 20
93.3976225555357047
 30
-0.0000000000000207
 11
-107.4999999999997016
 21
84.2909999999999542
 31
-0.0000000000000187
210
0.0
220
1.0
230
-0.0000000000000002
  0
ARC
  5
32DA
  8
0
  6
CONTINUOUS
 62
     3
 10
77.4974501330020615
 20
84.2921894103721741
 30
0.0
 40
30.0025498905739489
210
0.0
220
-0.0000000000000002
230
-1.0
 50
334.9928416634490986
 51
359.9977285865800241
  0
ARC
  5
32DB
  8
0
  6
CONTINUOUS
 62
     3
 10
-14.4974501330027401
 20
84.2921894103721598
 30
0.0
 40
30.0025498905738317
210
0.0
220
-0.0000000000000002
230
-1.0
 50
180.0022714134198907
 51
205.0071583365509866
  0
ARC
  5
32DC
  8
0
  6
CONTINUOUS
 62
     3
 10
120.9999999999996021
 20
63.9999999999999503
 30
0.0
 40
17.9999999999999289
210
0.0
220
-0.0000000000000002
230
-1.0
 50
154.9928416634488997
 51
180.0
  0
ARC
  5
32DD
  8
0
  6
CONTINUOUS
 62
     3
 10
-58.0000000000002913
 20
63.9999999999999503
 30
0.0
 40
18.0
210
0.0
220
-0.0000000000000002
230
-1.0
 50
360.0
 51
25.0071583365509404
  0
LINE
  5
32DE
  8
0
  6
CONTINUOUS
 62
     3
 10
40.0000000000002771
 20
63.9999999999999503
 30
-0.0000000000000142
 11
40.0000000000002771
 21
56.9999999999999503
 31
-0.0000000000000127
210
0.0
220
1.0
230
-0.0000000000000002
  0
LINE
  5
32DF
  8
0
  6
CONTINUOUS
 62
     3
 10
-102.9999999999997016
 20
63.9999999999999503
 30
-0.0000000000000142
 11
-102.9999999999997016
 21
56.9999999999999503
 31
-0.0000000000000127
210
0.0
220
1.0
230
-0.0000000000000002
  0
LINE
  5
32E0
  8
0
  6
CONTINUOUS
 62
     3
 10
40.0000000000002274
 20
56.9999999999999503
 30
-0.0000000000000127
 11
-102.999999999999801
 21
56.9999999999999503
 31
-0.0000000000000127
210
0.0
220
1.0
230
-0.0000000000000002
  0
LINE
  5
32E1
  8
0
  6
CONTINUOUS
 62
     3
 10
-102.999999999999801
 20
54.9999999999999574
 30
-0.0000000000000122
 11
40.0000000000002274
 21
54.9999999999999574
 31
-0.0000000000000122
210
0.0
220
1.0
230
-0.0000000000000002
  0
LINE
  5
32E2
  8
0
  6
CONTINUOUS
 62
     3
 10
40.0000000000002274
 20
56.9999999999999503
 30
-0.0000000000000127
 11
40.0000000000002274
 21
54.9999999999999574
 31
-0.0000000000000122
210
0.0
220
1.0
230
-0.0000000000000002
  0
LINE
  5
32E3
  8
0
  6
CONTINUOUS
 62
     3
 10
-102.999999999999801
 20
56.9999999999999503
 30
-0.0000000000000127
 11
-102.999999999999801
 21
54.9999999999999574
 31
-0.0000000000000122
210
0.0
220
1.0
230
-0.0000000000000002
  0
LINE
  5
32E4
  8
0
  6
CONTINUOUS
 62
     3
 10
-35.893691095387787
 20
0.0000000000001137
 30
0.0
 11
35.893691095387787
 21
-0.0000000000001137
 31
0.0
210
0.0
220
1.0
230
-0.0000000000000002
  0
LINE
  5
32E5
  8
0
  6
CONTINUOUS
 62
     3
 10
36.5000000000002984
 20
54.9999999999998366
 30
-0.0000000000000122
 11
36.5000000000001492
 21
6.9301424913463112
 31
-0.0000000000000015
210
0.0
220
1.0
230
-0.0000000000000002
  0
LINE
  5
32E6
  8
0
  6
CONTINUOUS
 62
     3
 10
-36.4999999999999218
 20
55.0000000000000711
 30
-0.0000000000000122
 11
-36.5000000000000782
 21
6.9301424913465448
 31
-0.0000000000000015
210
0.0
220
1.0
230
-0.0000000000000002
  0
LINE
  5
32E7
  8
0
  6
CONTINUOUS
 62
     3
 10
-35.893691095387787
 20
0.0000000000001141
 30
0.0
 11
-36.5
 21
6.9301424913465448
 31
-0.0000000000000015
210
0.0
220
1.0
230
-0.0000000000000002
  0
LINE
  5
32E8
  8
0
  6
CONTINUOUS
 62
     3
 10
35.8936910953877728
 20
-0.000000000000115
 30
0.0
 11
36.5000000000000213
 21
6.930142491346321
 31
-0.0000000000000015
210
0.0
220
1.0
230
-0.0000000000000002
  0
LINE
  5
32E9
  8
0
  6
CONTINUOUS
 62
     3
 10
-105.999999999999801
 20
106.9999999999999005
 30
-0.0000000000000238
 11
43.0000000000002203
 21
106.9999999999999005
 31
-0.0000000000000238
210
0.0
220
1.0
230
-0.0000000000000002
  0
ARC
  5
32EA
  8
0
  6
CONTINUOUS
 62
     3
 10
101.9758400866409005
 20
111.1999999999999034
 30
0.0
 40
2.799999999999887
210
0.0
220
-0.0000000000000002
230
-1.0
 50
15.0000000000011102
 51
89.505614912069106
  0
ARC
  5
32EB
  8
0
  6
CONTINUOUS
 62
     3
 10
-38.9758400866413766
 20
111.1999999999999034
 30
0.0
 40
2.799999999999899
210
0.0
220
-0.0000000000000002
230
-1.0
 50
90.4943850879310503
 51
164.9999999999986073
  0
LINE
  5
32EC
  8
0
  6
CONTINUOUS
 62
     3
 10
41.6804324002506874
 20
111.9246933262869987
 30
-0.0000000000000249
 11
43.0000000000002771
 21
106.9999999999999005
 31
-0.0000000000000238
210
0.0
220
1.0
230
-0.0000000000000002
  0
LINE
  5
32ED
  8
0
  6
CONTINUOUS
 62
     3
 10
-104.6804324002501971
 20
111.9246933262869987
 30
-0.0000000000000249
 11
-105.999999999999801
 21
106.9999999999999005
 31
-0.0000000000000238
210
0.0
220
1.0
230
-0.0000000000000002
  0
LINE
  5
32EE
  8
0
  6
VERDECKT
 62
     1
 10
-98.3148118992654503
 20
155.3247647316090934
 30
-0.0000000000000345
 11
-21.6851881007341589
 21
155.3247647316090934
 31
-0.0000000000000345
210
0.0
220
1.0
230
-0.0000000000000002
  0
LINE
  5
32EF
  8
0
  6
VERDECKT
 62
     1
 10
-21.9999999999998508
 20
127.3298957656647019
 30
-0.0000000000000283
 11
-21.9999999999998508
 21
115.9998957656645047
 31
-0.0000000000000258
210
0.0
220
1.0
230
-0.0000000000000002
  0
LINE
  5
32F0
  8
0
  6
VERDECKT
 62
     1
 10
-97.9999999999997442
 20
127.3298957656647019
 30
-0.0000000000000283
 11
-97.9999999999997442
 21
115.9998957656645047
 31
-0.0000000000000258
210
0.0
220
1.0
230
-0.0000000000000002
  0
ARC
  5
32F1
  8
0
  6
VERDECKT
 62
     1
 10
111.5999999999985022
 20
127.3298957656648014
 30
0.0
 40
13.5999999999988095
210
0.0
220
-0.0000000000000002
230
-1.0
 50
158.8168456069610102
 51
180.0000000000001137
  0
ARC
  5
32F2
  8
0
  6
VERDECKT
 62
     1
 10
8.4000000000004533
 20
127.3298957656647019
 30
0.0
 40
13.5999999999993904
210
0.0
220
-0.0000000000000002
230
-1.0
 50
0.0
 51
21.18315439303829
  0
ARC
  5
32F3
  8
0
  6
VERDECKT
 62
     1
 10
77.1000000000076398
 20
140.6998957656633138
 30
0.0
 40
23.4000932431179187
210
0.0
220
-0.0000000000000002
230
-1.0
 50
338.816845606961806
 51
359.8382525687345037
  0
ARC
  5
32F4
  8
0
  6
VERDECKT
 62
     1
 10
42.8999999999916426
 20
140.6998957656632001
 30
0.0
 40
23.4000932431175883
210
0.0
220
-0.0000000000000002
230
-1.0
 50
180.1617474312650984
 51
201.183154393038194
  0
LINE
  5
32F5
  8
0
  6
VERDECKT
 62
     1
 10
-19.499999999999801
 20
145.4509733585464062
 30
-0.0000000000000323
 11
-19.499999999999801
 21
140.6338367997441026
 31
-0.0000000000000312
210
0.0
220
1.0
230
-0.0000000000000002
  0
LINE
  5
32F6
  8
0
  6
VERDECKT
 62
     1
 10
-100.499999999999801
 20
145.4509733585464062
 30
-0.0000000000000323
 11
-100.499999999999801
 21
140.6338367997441026
 31
-0.0000000000000312
210
0.0
220
1.0
230
-0.0000000000000002
  0
ARC
  5
32F7
  8
0
  6
VERDECKT
 62
     1
 10
77.0999999999999659
 20
145.4509733585460936
 30
0.0
 40
23.3999999999998103
210
0.0
220
-0.0000000000000002
230
-1.0
 50
0.0000000000007633
 51
24.9581963123156214
  0
ARC
  5
32F8
  8
0
  6
VERDECKT
 62
     1
 10
42.8999999999997215
 20
145.4509733585460083
 30
0.0
 40
23.3999999999998884
210
0.0
220
-0.0000000000000002
230
-1.0
 50
155.0418036876843928
 51
179.9999999999992042
  0
LINE
  5
32F9
  8
0
  6
VERDECKT
 62
     1
 10
-98.3148118992654503
 20
155.3247647316090934
 30
-0.0000000000000345
 11
-99.7653973282751849
 21
155.9998957656644905
 31
-0.0000000000000346
210
0.0
220
1.0
230
-0.0000000000000002
  0
LINE
  5
32FA
  8
0
  6
VERDECKT
 62
     1
 10
-21.6851881007341412
 20
155.3247647316090934
 30
-0.0000000000000345
 11
-20.2346026717244314
 21
155.9998957656644905
 31
-0.0000000000000346
210
0.0
220
1.0
230
-0.0000000000000002
  0
LINE
  5
32FB
  8
0
  6
VERDECKT
 62
     1
 10
-94.9999999999997584
 20
113.9998957656645047
 30
-0.0000000000000253
 11
-94.9999999999997584
 21
115.9998957656645047
 31
-0.0000000000000258
210
0.0
220
1.0
230
-0.0000000000000002
  0
LINE
  5
32FC
  8
0
  6
VERDECKT
 62
     1
 10
-24.9999999999997691
 20
113.9998957656645047
 30
-0.0000000000000253
 11
-24.9999999999997691
 21
115.9998957656645047
 31
-0.0000000000000258
210
0.0
220
1.0
230
-0.0000000000000002
  0
LINE
  5
32FD
  8
0
  6
VERDECKT
 62
     1
 10
-101.9926753298143041
 20
105.9434543456482061
 30
-0.0000000000000235
 11
38.9926753298148867
 21
105.9434543456482061
 31
-0.0000000000000235
210
0.0
220
1.0
230
-0.0000000000000002
  0
LINE
  5
32FE
  8
0
  6
VERDECKT
 62
     1
 10
37.5000000000002771
 20
63.9999999999999503
 30
-0.0000000000000142
 11
37.5000000000002771
 21
56.9999999999999503
 31
-0.0000000000000127
210
0.0
220
1.0
230
-0.0000000000000002
  0
LINE
  5
32FF
  8
0
  6
VERDECKT
 62
     1
 10
-100.4999999999997016
 20
63.9999999999999503
 30
-0.0000000000000142
 11
-100.4999999999997016
 21
56.9999999999999503
 31
-0.0000000000000127
210
0.0
220
1.0
230
-0.0000000000000002
  0
ARC
  5
3300
  8
0
  6
VERDECKT
 62
     1
 10
120.3933035583913949
 20
64.1333196672718344
 30
0.0
 40
19.8937502899780583
210
0.0
220
-0.0000000000000002
230
-1.0
 50
154.8288522569345957
 51
180.383975435877602
  0
ARC
  5
3301
  8
0
  6
VERDECKT
 62
     1
 10
-57.3933035583919491
 20
64.1333196672718202
 30
0.0
 40
19.8937502899780014
210
0.0
220
-0.0000000000000002
230
-1.0
 50
359.6160245641223128
 51
25.1711477430654895
  0
ARC
  5
3302
  8
0
  6
VERDECKT
 62
     1
 10
77.4999999999996163
 20
84.2910000000000252
 30
0.0
 40
27.5000000000000995
210
0.0
220
-0.0000000000000002
230
-1.0
 50
334.8288522569345105
 51
360.0
  0
ARC
  5
3303
  8
0
  6
VERDECKT
 62
     1
 10
-14.5000000000000195
 20
84.2910000000000537
 30
0.0
 40
27.50000000000027
210
0.0
220
-0.0000000000000002
230
-1.0
 50
180.0
 51
205.1711477430654043
  0
LINE
  5
3304
  8
0
  6
VERDECKT
 62
     1
 10
42.0000000000002771
 20
93.3976225555357047
 30
-0.0000000000000207
 11
42.0000000000002771
 21
84.291000000000011
 31
-0.0000000000000187
210
0.0
220
1.0
230
-0.0000000000000002
  0
LINE
  5
3305
  8
0
  6
VERDECKT
 62
     1
 10
-104.9999999999997016
 20
93.3976225555357047
 30
-0.0000000000000207
 11
-104.9999999999997016
 21
84.291000000000011
 31
-0.0000000000000187
210
0.0
220
1.0
230
-0.0000000000000002
  0
ARC
  5
3306
  8
0
  6
VERDECKT
 62
     1
 10
77.5000000000013642
 20
93.3976225555359889
 30
0.0
 40
27.4999999999983515
210
0.0
220
-0.0000000000000002
230
-1.0
 50
359.9999999999993747
 51
24.9999999999997513
  0
ARC
  5
3307
  8
0
  6
VERDECKT
 62
     1
 10
-14.5000000000019096
 20
93.3976225555359889
 30
0.0
 40
27.4999999999983693
210
0.0
220
-0.0000000000000002
230
-1.0
 50
155.0000000000003126
 51
180.0000000000005969
  0
LINE
  5
3308
  8
0
  6
VERDECKT
 62
     1
 10
38.9926753298148867
 20
105.9434543456482061
 30
-0.0000000000000235
 11
39.4234641435083688
 21
105.0196247534044005
 31
-0.0000000000000233
210
0.0
220
1.0
230
-0.0000000000000002
  0
LINE
  5
3309
  8
0
  6
VERDECKT
 62
     1
 10
-101.9926753298143041
 20
105.9434543456482061
 30
-0.0000000000000235
 11
-102.4234641435078004
 21
105.0196247534044005
 31
-0.0000000000000233
210
0.0
220
1.0
230
-0.0000000000000002
  0
LINE
  5
330A
  8
0
  6
VERDECKT
 62
     1
 10
-101.9926753298143041
 20
105.9434543456482061
 30
-0.0000000000000235
 11
-104.2584447974059003
 21
107.0
 31
-0.0000000000000238
210
0.0
220
1.0
230
-0.0000000000000002
  0
LINE
  5
330B
  8
0
  6
VERDECKT
 62
     1
 10
38.9926753298148796
 20
105.9434543456482061
 30
-0.0000000000000235
 11
41.2584447974065185
 21
107.0
 31
-0.0000000000000238
210
0.0
220
1.0
230
-0.0000000000000002
  0
LINE
  5
330C
  8
0
  6
VERDECKT
 62
     1
 10
-34.8999999999997712
 20
54.9999999999999574
 30
-0.0000000000000122
 11
-34.8999999999997712
 21
56.9999999999999503
 31
-0.0000000000000127
210
0.0
220
1.0
230
-0.0000000000000002
  0
LINE
  5
330D
  8
0
  6
VERDECKT
 62
     1
 10
34.9000000000002331
 20
54.9999999999999574
 30
-0.0000000000000122
 11
34.9000000000002331
 21
56.9999999999999503
 31
-0.0000000000000127
210
0.0
220
1.0
230
-0.0000000000000002
  0
LINE
  5
330E
  8
0
  6
VERDECKT
 62
     1
 10
-34.2997795784411892
 20
0.1394491883963269
 30
0.0
 11
34.2997795784411892
 21
0.1394491883960996
 31
0.0
210
0.0
220
1.0
230
-0.0000000000000002
  0
LINE
  5
330F
  8
0
  6
VERDECKT
 62
     1
 10
34.2997795784412318
 20
0.1394491883960627
 30
0.0
 11
35.8936910953878368
 21
-0.0000000000001614
 31
0.0
210
0.0
220
1.0
230
-0.0000000000000002
  0
LINE
  5
3310
  8
0
  6
VERDECKT
 62
     1
 10
-34.2997795784411892
 20
0.1394491883962992
 30
0.0
 11
-35.893691095387787
 21
0.0000000000000859
 31
0.0
210
0.0
220
1.0
230
-0.0000000000000002
  0
LINE
  5
3311
  8
0
  6
VERDECKT
 62
     1
 10
-34.2997795784411323
 20
0.1394491883963318
 30
0.0
 11
-34.8999999999998067
 21
7.0000000000000631
 31
-0.0000000000000016
210
0.0
220
1.0
230
-0.0000000000000002
  0
LINE
  5
3312
  8
0
  6
VERDECKT
 62
     1
 10
34.299779578441111
 20
0.139449188396108
 30
0.0
 11
34.8999999999998423
 21
6.9999999999998446
 31
-0.0000000000000016
210
0.0
220
1.0
230
-0.0000000000000002
  0
LINE
  5
3313
  8
0
  6
VERDECKT
 62
     1
 10
34.9000000000001691
 20
54.9999999999998366
 30
-0.0000000000000122
 11
34.9000000000000128
 21
6.9999999999998241
 31
-0.0000000000000016
210
0.0
220
1.0
230
-0.0000000000000002
  0
LINE
  5
3314
  8
0
  6
VERDECKT
 62
     1
 10
-34.8999999999997925
 20
55.0000000000000711
 30
-0.0000000000000122
 11
-34.8999999999999417
 21
7.0000000000000577
 31
-0.0000000000000016
210
0.0
220
1.0
230
-0.0000000000000002
  0
LINE
  5
3315
  8
0
  6
VERDECKT
 62
     1
 10
-97.1346629585989518
 20
63.9998957656646468
 30
-0.0000000000000142
 11
34.1346629585993924
 21
63.9998957656646468
 31
-0.0000000000000142
210
0.0
220
1.0
230
-0.0000000000000002
  0
LINE
  5
3316
  8
0
  6
VERDECKT
 62
     1
 10
-94.6441762133694056
 20
64.2177851225338969
 30
-0.0000000000000143
 11
31.6441762133698603
 21
64.2177851225338969
 31
-0.0000000000000143
210
0.0
220
1.0
230
-0.0000000000000002
  0
LINE
  5
3317
  8
0
  6
VERDECKT
 62
     1
 10
35.0000000000002274
 20
113.9998957656645047
 30
-0.0000000000000253
 11
35.0000000000002274
 21
73.8907434083932486
 31
-0.0000000000000164
210
0.0
220
1.0
230
-0.0000000000000002
  0
LINE
  5
3318
  8
0
  6
VERDECKT
 62
     1
 10
-97.9999999999997726
 20
113.9998957656645047
 30
-0.0000000000000253
 11
-97.9999999999997726
 21
73.8907434083932486
 31
-0.0000000000000164
210
0.0
220
1.0
230
-0.0000000000000002
  0
LINE
  5
3319
  8
0
  6
VERDECKT
 62
     1
 10
-97.1346629585989518
 20
63.9998957656646468
 30
-0.0000000000000142
 11
-97.9999999999997726
 21
73.8907434083932486
 31
-0.0000000000000164
210
0.0
220
1.0
230
-0.0000000000000002
  0
LINE
  5
331A
  8
0
  6
VERDECKT
 62
     1
 10
34.1346629585993924
 20
63.9998957656646468
 30
-0.0000000000000142
 11
35.0000000000002274
 21
73.8907434083932486
 31
-0.0000000000000164
210
0.0
220
1.0
230
-0.0000000000000002
  0
LINE
  5
331B
  8
0
  6
VERDECKT
 62
     1
 10
31.6441762133698603
 20
64.2177851225338969
 30
-0.0000000000000143
 11
34.1346629585993924
 21
63.9998957656646468
 31
-0.0000000000000142
210
0.0
220
1.0
230
-0.0000000000000002
  0
LINE
  5
331C
  8
0
  6
VERDECKT
 62
     1
 10
-94.6441762133694056
 20
64.2177851225338969
 30
-0.0000000000000143
 11
-97.1346629585989518
 21
63.9998957656646468
 31
-0.0000000000000142
210
0.0
220
1.0
230
-0.0000000000000002
  0
LINE
  5
331D
  8
0
  6
VERDECKT
 62
     1
 10
-94.6441762133694056
 20
64.2177851225338969
 30
-0.0000000000000143
 11
-95.4999999999997726
 21
73.9998957656645331
 31
-0.0000000000000164
210
0.0
220
1.0
230
-0.0000000000000002
  0
LINE
  5
331E
  8
0
  6
VERDECKT
 62
     1
 10
31.6441762133698603
 20
64.2177851225338969
 30
-0.0000000000000143
 11
32.5000000000002274
 21
73.9998957656645331
 31
-0.0000000000000164
210
0.0
220
1.0
230
-0.0000000000000002
  0
LINE
  5
331F
  8
0
  6
VERDECKT
 62
     1
 10
32.5000000000002274
 20
113.9998957656645047
 30
-0.0000000000000253
 11
32.5000000000002274
 21
73.9998957656645331
 31
-0.0000000000000164
210
0.0
220
1.0
230
-0.0000000000000002
  0
LINE
  5
3320
  8
0
  6
VERDECKT
 62
     1
 10
-95.4999999999997726
 20
113.9998957656645047
 30
-0.0000000000000253
 11
-95.4999999999997726
 21
73.9998957656645331
 31
-0.0000000000000164
210
0.0
220
1.0
230
-0.0000000000000002
  0
LINE
  5
3321
  8
0
  6
VERDECKT
 62
     1
 10
42.0000000000002274
 20
86.0784609690826272
 30
-0.0000000000000191
 11
-104.999999999999801
 21
86.0784609690826272
 31
-0.0000000000000191
210
0.0
220
1.0
230
-0.0000000000000002
  0
LINE
  5
3322
  8
0
  6
VERDECKT
 62
     1
 10
-104.9984603023512051
 20
83.9999999999999289
 30
-0.0000000000000187
 11
-31.4999999999997691
 21
83.9999999999999289
 31
-0.0000000000000187
210
0.0
220
1.0
230
-0.0000000000000002
  0
LINE
  5
3323
  8
0
  6
VERDECKT
 62
     1
 10
-31.4999999999997797
 20
83.9999999999999289
 30
-0.0000000000000187
 11
41.9984603023517522
 21
83.9999999999999289
 31
-0.0000000000000187
210
0.0
220
1.0
230
-0.0000000000000002
  0
LINE
  5
3324
  8
0
  6
VERDECKT
 62
     1
 10
-104.999999999999801
 20
91.2999999999998835
 30
-0.0000000000000203
 11
42.0000000000002274
 21
91.2999999999998835
 31
-0.0000000000000203
210
0.0
220
1.0
230
-0.0000000000000002
  0
LINE
  5
3325
  8
0
  6
VERDECKT
 62
     1
 10
41.9675869783186499
 20
94.732413021681495
 30
-0.000000000000021
 11
-104.9675869783181952
 21
94.732413021681495
 31
-0.000000000000021
210
0.0
220
1.0
230
-0.0000000000000002
  0
LINE
  5
3326
  8
0
  6
VERDECKT
 62
     1
 10
-101.9801488286688027
 20
103.9999999999999005
 30
-0.0000000000000231
 11
38.9801488286692575
 21
103.9999999999999005
 31
-0.0000000000000231
210
0.0
220
1.0
230
-0.0000000000000002
  0
LINE
  5
3327
  8
0
  6
VERDECKT
 62
     1
 10
-103.7999999999997982
 20
98.9999999999999432
 30
-0.000000000000022
 11
40.8000000000002885
 21
98.9999999999999432
 31
-0.000000000000022
210
0.0
220
1.0
230
-0.0000000000000002
  0
LINE
  5
3328
  8
0
  6
VERDECKT
 62
     1
 10
-103.7999999999997982
 20
95.8999999999999062
 30
-0.0000000000000213
 11
40.8000000000002885
 21
95.8999999999999062
 31
-0.0000000000000213
210
0.0
220
1.0
230
-0.0000000000000002
  0
LINE
  5
3329
  8
0
  6
VERDECKT
 62
     1
 10
-103.999999999999801
 20
90.2999999999998835
 30
-0.0000000000000201
 11
41.0000000000002203
 21
90.2999999999998835
 31
-0.0000000000000201
210
0.0
220
1.0
230
-0.0000000000000002
  0
LINE
  5
332A
  8
0
  6
VERDECKT
 62
     1
 10
-103.999999999999801
 20
87.8105117766514667
 30
-0.0000000000000195
 11
41.0000000000002203
 21
87.8105117766514667
 31
-0.0000000000000195
210
0.0
220
1.0
230
-0.0000000000000002
  0
LINE
  5
332B
  8
0
  6
VERDECKT
 62
     1
 10
-101.1999999999998039
 20
86.9999999999999289
 30
-0.0000000000000193
 11
38.2000000000002728
 21
86.9999999999999289
 31
-0.0000000000000193
210
0.0
220
1.0
230
-0.0000000000000002
  0
LINE
  5
332C
  8
0
  6
VERDECKT
 62
     1
 10
-98.8514204588135499
 20
80.7106384423445036
 30
-0.0000000000000179
 11
35.8514204588140117
 21
80.7106384423445036
 31
-0.0000000000000179
210
0.0
220
1.0
230
-0.0000000000000002
  0
LINE
  5
332D
  8
0
  6
VERDECKT
 62
     1
 10
42.0000000000002274
 20
86.0784609690826272
 30
-0.0000000000000191
 11
42.0000000000002274
 21
84.291000000000011
 31
-0.0000000000000187
210
0.0
220
1.0
230
-0.0000000000000002
  0
LINE
  5
332E
  8
0
  6
VERDECKT
 62
     1
 10
-104.999999999999801
 20
86.0784609690826272
 30
-0.0000000000000191
 11
-104.999999999999801
 21
84.291000000000011
 31
-0.0000000000000187
210
0.0
220
1.0
230
-0.0000000000000002
  0
ARC
  5
332F
  8
0
  6
VERDECKT
 62
     1
 10
77.4999999999506599
 20
84.2910000000002242
 30
0.0
 40
27.5000000000491198
210
0.0
220
-0.0000000000000002
230
-1.0
 50
359.3936951630969929
 51
359.9999999999996021
  0
ARC
  5
3330
  8
0
  6
VERDECKT
 62
     1
 10
-14.4999999999511093
 20
84.2910000000002242
 30
0.0
 40
27.5000000000491198
210
0.0
220
-0.0000000000000002
230
-1.0
 50
180.0000000000003979
 51
180.6063048369028934
  0
LINE
  5
3331
  8
0
  6
VERDECKT
 62
     1
 10
42.0000000000002274
 20
93.3976225555357047
 30
-0.0000000000000207
 11
42.0000000000002274
 21
91.2999999999998835
 31
-0.0000000000000203
210
0.0
220
1.0
230
-0.0000000000000002
  0
LINE
  5
3332
  8
0
  6
VERDECKT
 62
     1
 10
-104.999999999999801
 20
93.3976225555357047
 30
-0.0000000000000207
 11
-104.999999999999801
 21
91.2999999999998835
 31
-0.0000000000000203
210
0.0
220
1.0
230
-0.0000000000000002
  0
ARC
  5
3333
  8
0
  6
VERDECKT
 62
     1
 10
77.4999999999897966
 20
93.3976225555357047
 30
0.0
 40
27.5000000000099796
210
0.0
220
-0.0000000000000002
230
-1.0
 50
360.0
 51
2.7821062338271529
  0
ARC
  5
3334
  8
0
  6
VERDECKT
 62
     1
 10
-14.4999999999902407
 20
93.3976225555357047
 30
0.0
 40
27.5000000000099902
210
0.0
220
-0.0000000000000002
230
-1.0
 50
177.2178937661728071
 51
180.0
  0
ARC
  5
3335
  8
0
  6
VERDECKT
 62
     1
 10
101.499999999999801
 20
105.9999999999999005
 30
0.0
 40
1.000000000000014
210
0.0
220
-0.0000000000000002
230
-1.0
 50
90.00000000000081
 51
180.0000000000007105
  0
ARC
  5
3336
  8
0
  6
VERDECKT
 62
     1
 10
-38.5000000000002274
 20
106.0
 30
0.0
 40
1.0
210
0.0
220
-0.0000000000000002
230
-1.0
 50
359.9999999999984084
 51
90.0
  0
LINE
  5
3337
  8
0
  6
VERDECKT
 62
     1
 10
37.5000000000002274
 20
105.9999999999999005
 30
-0.0000000000000235
 11
37.5000000000002274
 21
104.9999999999999005
 31
-0.0000000000000233
210
0.0
220
1.0
230
-0.0000000000000002
  0
LINE
  5
3338
  8
0
  6
VERDECKT
 62
     1
 10
-100.4999999999997016
 20
105.9999999999999005
 30
-0.0000000000000235
 11
-100.4999999999997016
 21
104.9999999999999005
 31
-0.0000000000000233
210
0.0
220
1.0
230
-0.0000000000000002
  0
ARC
  5
3339
  8
0
  6
VERDECKT
 62
     1
 10
101.4999999999997016
 20
104.9999999999999005
 30
0.0
 40
0.9999999999999715
210
0.0
220
-0.0000000000000002
230
-1.0
 50
179.9999999999984084
 51
270.0
  0
ARC
  5
333A
  8
0
  6
VERDECKT
 62
     1
 10
-38.5000000000002416
 20
104.9999999999999005
 30
0.0
 40
0.9999999999999715
210
0.0
220
-0.0000000000000002
230
-1.0
 50
270.0
 51
0.0000000000012213
  0
LINE
  5
333B
  8
0
  6
VERDECKT
 62
     1
 10
38.9801488286692575
 20
103.9999999999999005
 30
-0.0000000000000231
 11
40.8000000000002885
 21
98.9999999999999432
 31
-0.000000000000022
210
0.0
220
1.0
230
-0.0000000000000002
  0
LINE
  5
333C
  8
0
  6
VERDECKT
 62
     1
 10
-101.9801488286688027
 20
103.9999999999999005
 30
-0.0000000000000231
 11
-103.7999999999997982
 21
98.9999999999999432
 31
-0.000000000000022
210
0.0
220
1.0
230
-0.0000000000000002
  0
LINE
  5
333D
  8
0
  6
VERDECKT
 62
     1
 10
40.8000000000002885
 20
98.9999999999999432
 30
-0.000000000000022
 11
40.8000000000002885
 21
95.8999999999999062
 31
-0.0000000000000213
210
0.0
220
1.0
230
-0.0000000000000002
  0
LINE
  5
333E
  8
0
  6
VERDECKT
 62
     1
 10
-103.7999999999997982
 20
98.9999999999999432
 30
-0.000000000000022
 11
-103.7999999999997982
 21
95.8999999999999062
 31
-0.0000000000000213
210
0.0
220
1.0
230
-0.0000000000000002
  0
LINE
  5
333F
  8
0
  6
VERDECKT
 62
     1
 10
40.8000000000002601
 20
95.8999999999998636
 30
-0.0000000000000213
 11
41.9675869783186499
 21
94.732413021681495
 31
-0.000000000000021
210
0.0
220
1.0
230
-0.0000000000000002
  0
LINE
  5
3340
  8
0
  6
VERDECKT
 62
     1
 10
-103.7999999999997982
 20
95.8999999999998636
 30
-0.0000000000000213
 11
-104.9675869783181952
 21
94.7324130216815092
 31
-0.000000000000021
210
0.0
220
1.0
230
-0.0000000000000002
  0
LINE
  5
3341
  8
0
  6
VERDECKT
 62
     1
 10
-103.999999999999801
 20
90.2999999999998835
 30
-0.0000000000000201
 11
-104.999999999999801
 21
91.2999999999998835
 31
-0.0000000000000203
210
0.0
220
1.0
230
-0.0000000000000002
  0
LINE
  5
3342
  8
0
  6
VERDECKT
 62
     1
 10
41.0000000000002203
 20
90.2999999999998835
 30
-0.0000000000000201
 11
42.0000000000002274
 21
91.2999999999998835
 31
-0.0000000000000203
210
0.0
220
1.0
230
-0.0000000000000002
  0
LINE
  5
3343
  8
0
  6
VERDECKT
 62
     1
 10
41.0000000000002203
 20
90.2999999999998835
 30
-0.0000000000000201
 11
41.0000000000002203
 21
87.8105117766514667
 31
-0.0000000000000195
210
0.0
220
1.0
230
-0.0000000000000002
  0
LINE
  5
3344
  8
0
  6
VERDECKT
 62
     1
 10
-103.999999999999801
 20
90.2999999999998835
 30
-0.0000000000000201
 11
-103.999999999999801
 21
87.8105117766514667
 31
-0.0000000000000195
210
0.0
220
1.0
230
-0.0000000000000002
  0
LINE
  5
3345
  8
0
  6
VERDECKT
 62
     1
 10
41.0000000000002203
 20
87.8105117766514667
 30
-0.0000000000000195
 11
42.0000000000002274
 21
86.0784609690826272
 31
-0.0000000000000191
210
0.0
220
1.0
230
-0.0000000000000002
  0
LINE
  5
3346
  8
0
  6
VERDECKT
 62
     1
 10
-103.999999999999801
 20
87.8105117766514667
 30
-0.0000000000000195
 11
-104.999999999999801
 21
86.0784609690826272
 31
-0.0000000000000191
210
0.0
220
1.0
230
-0.0000000000000002
  0
LINE
  5
3347
  8
0
  6
VERDECKT
 62
     1
 10
38.2000000000002728
 20
86.9999999999999289
 30
-0.0000000000000193
 11
41.2000000000002728
 21
83.9999999999999289
 31
-0.0000000000000187
210
0.0
220
1.0
230
-0.0000000000000002
  0
LINE
  5
3348
  8
0
  6
VERDECKT
 62
     1
 10
-101.1999999999998039
 20
86.9999999999999289
 30
-0.0000000000000193
 11
-104.1999999999998039
 21
83.9999999999999289
 31
-0.0000000000000187
210
0.0
220
1.0
230
-0.0000000000000002
  0
ARC
  5
3349
  8
0
  6
VERDECKT
 62
     1
 10
87.9539230609124161
 20
87.2427068640929662
 30
0.0
 40
12.7052496002111095
210
0.0
220
-0.0000000000000002
230
-1.0
 50
329.0611081042258093
 51
358.9054189948467979
  0
ARC
  5
334A
  8
0
  6
VERDECKT
 62
     1
 10
-24.9539230609129703
 20
87.2427068640928951
 30
0.0
 40
12.70524960021101
210
0.0
220
-0.0000000000000002
230
-1.0
 50
181.0945810051528895
 51
210.9388918957741907
  0
LINE
  5
334B
  8
0
  6
VERDECKT
 62
     1
 10
35.0000000000002274
 20
106.9999999999999005
 30
-0.0000000000000238
 11
35.0000000000002274
 21
80.7106384423445036
 31
-0.0000000000000179
210
0.0
220
1.0
230
-0.0000000000000002
  0
LINE
  5
334C
  8
0
  6
VERDECKT
 62
     1
 10
-97.9999999999997726
 20
106.9999999999999005
 30
-0.0000000000000238
 11
-97.9999999999997726
 21
80.7106384423445036
 31
-0.0000000000000179
210
0.0
220
1.0
230
-0.0000000000000002
  0
LINE
  5
334D
  8
0
  6
VERDECKT
 62
     1
 10
-97.9999999999997158
 20
106.9999999999999005
 30
-0.0000000000000238
 11
-99.3195675997493055
 21
111.9246933262869987
 31
-0.0000000000000249
210
0.0
220
1.0
230
-0.0000000000000002
  0
LINE
  5
334E
  8
0
  6
VERDECKT
 62
     1
 10
35.0000000000001776
 20
106.9999999999999005
 30
-0.0000000000000238
 11
36.3195675997497389
 21
111.9246933262869987
 31
-0.0000000000000249
210
0.0
220
1.0
230
-0.0000000000000002
  0
ARC
  5
334F
  8
0
  6
VERDECKT
 62
     1
 10
102.0241599133585026
 20
111.2000000000000028
 30
0.0
 40
2.7999999999998981
210
0.0
220
-0.0000000000000002
230
-1.0
 50
90.494385087928876
 51
165.0000000000007958
  0
ARC
  5
3350
  8
0
  6
VERDECKT
 62
     1
 10
-39.0241599133589574
 20
111.2000000000000028
 30
0.0
 40
2.799999999999891
210
0.0
220
-0.0000000000000002
230
-1.0
 50
14.9999999999986802
 51
89.5056149120714224
  0
ENDBLK
  5
3352
  8
0
  0
ENDSEC
  0
SECTION
  2
ENTITIES
  0
TEXT
  5
187F
  8
VOLL
 10
218.8403605359953019
 20
483.7363201687408036
 30
0.0
 40
1.8
  1

  7
GREEKS
  0
TEXT
  5
1D26
  8
VOLL
 10
527.2959478159162927
 20
322.1128898283490116
 30
0.0
 40
1.8
  1

  7
GREEKS
  0
TEXT
  5
20D5
  8
VOLL
 10
540.941256559102726
 20
494.1820039147169723
 30
0.0
 40
1.8
  1

  7
GREEKS
  0
TEXT
  5
295F
  8
VOLL
 10
1176.7918850716280303
 20
362.571647031307009
 30
0.0
 40
1.8
  1

  7
GREEKS
  0
INSERT
  5
2964
  8
ADSK_ASSOC_ENTITY_BACKUPS
  2
*S0
 10
1098.7151303546470444
 20
331.5456992666012184
 30
0.0
  0
TEXT
  5
2B8D
  8
VOLL
 10
1038.1646541561440245
 20
416.4795241912792108
 30
0.0
 40
1.8
  1

  7
GREEKS
  0
INSERT
  5
32C1
  8
MITTEL
  2
A$C00502DB4
 10
0.0000000000000142
 20
-0.0000000000000009
 30
84.29099999999994
  0
INSERT
  5
3353
  8
MITTEL
  2
A$C63F40ADC
 10
0.0000000000002274
 20
100.0
 30
54.9999999999999432
  0
VIEWPORT
  5
2973
 67
     1
  8
0
 10
36.7116378639648175
 20
533.0640104982521734
 30
0.0
 40
1126.6584101543890029
 41
598.4438902743142989
 68
     1
 69
     1
1001
ACAD
1000
MVIEW
1002
{
1070
    16
1010
0.0
1020
0.0
1030
0.0
1010
0.0
1020
0.0
1030
1.0
1040
0.0
1040
598.4438902743142989
1040
36.7116378639648175
1040
533.0640104982521734
1040
50.0
1040
0.0
1040
0.0
1070
     0
1070
  1500
1070
     1
1070
     1
1070
     0
1070
     0
1070
     0
1070
     0
1040
0.0
1040
0.0
1040
0.0
1040
10.0
1040
10.0
1040
10.0
1040
10.0
1070
     0
1002
{
1002
}
1002
}
  0
TEXT
  5
2E94
 67
     1
  8
VOLL
 10
462.0885127034077868
 20
263.1659954277075144
 30
0.0
 40
3.6000000000000001
  1

  7
GREEKS
  0
ENDSEC
  0
EOF
