  0
SECTION
  2
HEADER
  9
$ACADVER
  1
AC1009
  9
$INSBASE
 10
0.0
 20
0.0
 30
0.0
  9
$EXTMIN
 10
-172.9632080221072101
 20
-76.0026748604079785
 30
-0.0101106502033872
  9
$EXTMAX
 10
97.9679049351650519
 20
493.3477184806690161
 30
0.0151675181851943
  9
$LIMMIN
 10
0.0
 20
0.0
  9
$LIMMAX
 10
419.9999999999998863
 20
594.0
  9
$ORTHOMODE
 70
     1
  9
$REGENMODE
 70
     1
  9
$FILLMODE
 70
     1
  9
$QTEXTMODE
 70
     0
  9
$MIRRTEXT
 70
     1
  9
$DRAGMODE
 70
     2
  9
$LTSCALE
 40
20.0
  9
$OSMODE
 70
  1327
  9
$ATTMODE
 70
     1
  9
$TEXTSIZE
 40
3.5
  9
$TRACEWID
 40
0.5
  9
$TEXTSTYLE
  7
STANDARD
  9
$CLAYER
  8
ROHR
  9
$CELTYPE
  6
BYLAYER
  9
$CECOLOR
 62
   256
  9
$DIMSCALE
 40
2.0
  9
$DIMASZ
 40
3.5
  9
$DIMEXO
 40
1.0
  9
$DIMDLI
 40
7.0
  9
$DIMRND
 40
0.0
  9
$DIMDLE
 40
0.0
  9
$DIMEXE
 40
1.0
  9
$DIMTP
 40
0.0
  9
$DIMTM
 40
0.0
  9
$DIMTXT
 40
3.5
  9
$DIMCEN
 40
1.5
  9
$DIMTSZ
 40
0.0
  9
$DIMTOL
 70
     0
  9
$DIMLIM
 70
     0
  9
$DIMTIH
 70
     0
  9
$DIMTOH
 70
     0
  9
$DIMSE1
 70
     0
  9
$DIMSE2
 70
     0
  9
$DIMTAD
 70
     1
  9
$DIMZIN
 70
     8
  9
$DIMBLK
  1

  9
$DIMASO
 70
     1
  9
$DIMSHO
 70
     0
  9
$DIMPOST
  1

  9
$DIMAPOST
  1

  9
$DIMALT
 70
     0
  9
$DIMALTD
 70
     2
  9
$DIMALTF
 40
25.3999999999999986
  9
$DIMLFAC
 40
1.0
  9
$DIMTOFL
 70
     1
  9
$DIMTVP
 40
0.0
  9
$DIMTIX
 70
     0
  9
$DIMSOXD
 70
     0
  9
$DIMSAH
 70
     0
  9
$DIMBLK1
  1

  9
$DIMBLK2
  1

  9
$DIMSTYLE
  2
STANDARD
  9
$DIMCLRD
 70
     0
  9
$DIMCLRE
 70
     0
  9
$DIMCLRT
 70
     1
  9
$DIMTFAC
 40
0.5142857142857143
  9
$DIMGAP
 40
1.5
  9
$LUNITS
 70
     2
  9
$LUPREC
 70
     2
  9
$SKETCHINC
 40
1.0
  9
$FILLETRAD
 40
82.5
  9
$AUNITS
 70
     0
  9
$AUPREC
 70
     0
  9
$MENU
  1
ACAD
  9
$ELEVATION
 40
0.0
  9
$PELEVATION
 40
0.0
  9
$THICKNESS
 40
0.0
  9
$LIMCHECK
 70
     0
  9
$BLIPMODE
 70
     0
  9
$CHAMFERA
 40
0.0
  9
$CHAMFERB
 40
0.0
  9
$SKPOLY
 70
     0
  9
$TDCREATE
 40
2455397.8646990740671754
  9
$TDUPDATE
 40
2458383.5906134261749685
  9
$TDINDWG
 40
0.1218631134
  9
$TDUSRTIMER
 40
0.1218631134
  9
$USRTIMER
 70
     1
  9
$ANGBASE
 50
0.0
  9
$ANGDIR
 70
     0
  9
$PDMODE
 70
     0
  9
$PDSIZE
 40
0.0
  9
$PLINEWID
 40
0.0
  9
$COORDS
 70
     1
  9
$SPLFRAME
 70
     0
  9
$SPLINETYPE
 70
     6
  9
$SPLINESEGS
 70
     8
  9
$ATTDIA
 70
     0
  9
$ATTREQ
 70
     0
  9
$HANDLING
 70
     1
  9
$HANDSEED
  5
216B
  9
$SURFTAB1
 70
     6
  9
$SURFTAB2
 70
     6
  9
$SURFTYPE
 70
     6
  9
$SURFU
 70
     6
  9
$SURFV
 70
     6
  9
$UCSNAME
  2

  9
$UCSORG
 10
0.0
 20
0.0
 30
0.0
  9
$UCSXDIR
 10
1.0
 20
0.0
 30
0.0
  9
$UCSYDIR
 10
0.0
 20
1.0
 30
0.0
  9
$PUCSNAME
  2

  9
$PUCSORG
 10
0.0
 20
0.0
 30
0.0
  9
$PUCSXDIR
 10
1.0
 20
0.0
 30
0.0
  9
$PUCSYDIR
 10
0.0
 20
1.0
 30
0.0
  9
$USERI1
 70
     0
  9
$USERI2
 70
     0
  9
$USERI3
 70
     0
  9
$USERI4
 70
     0
  9
$USERI5
 70
     0
  9
$USERR1
 40
0.0
  9
$USERR2
 40
0.0
  9
$USERR3
 40
0.0
  9
$USERR4
 40
0.0
  9
$USERR5
 40
0.0
  9
$WORLDVIEW
 70
     1
  9
$SHADEDGE
 70
     3
  9
$SHADEDIF
 70
    70
  9
$TILEMODE
 70
     1
  9
$MAXACTVP
 70
    16
  9
$PLIMCHECK
 70
     0
  9
$PEXTMIN
 10
-0.0858461653450036
 20
-0.1565447150711918
 30
-0.0000000000112498
  9
$PEXTMAX
 10
6.2260280809623287
 20
8.4618116950788291
 30
0.0000000000002956
  9
$PLIMMIN
 10
-0.2500002402958907
 20
-0.2499999962453767
  9
$PLIMMAX
 10
10.7499995194082203
 20
8.2499997634587334
  9
$UNITMODE
 70
     0
  9
$VISRETAIN
 70
     0
  9
$PLINEGEN
 70
     0
  9
$PSLTSCALE
 70
     0
  0
ENDSEC
  0
SECTION
  2
TABLES
  0
TABLE
  2
VPORT
 70
     1
  0
VPORT
  2
*ACTIVE
 70
     0
 10
0.0
 20
0.0
 11
1.0
 21
1.0
 12
4.7523484565288072
 22
47.7569944663805401
 13
0.0
 23
0.0
 14
1.0
 24
1.0
 15
10.0
 25
10.0
 16
-0.0000000000003553
 26
0.0
 36
1597.8358213037379301
 17
-42.2499999999999787
 27
160.91552734375
 37
165.6655320140280878
 40
573.6098725930053206
 41
1.8826466916354549
 42
50.0
 43
0.0
 44
0.0
 50
0.0
 51
0.0
 71
     0
 72
  1500
 73
     1
 74
     0
 75
     0
 76
     0
 77
     0
 78
     0
  0
ENDTAB
  0
TABLE
  2
LTYPE
 70
     3
  0
LTYPE
  2
CONTINUOUS
 70
     0
  3
Solid line
 72
    65
 73
     0
 40
0.0
  0
LTYPE
  2
VERDECKT
 70
     0
  3
Verdeckt __ __ __ __ __ __ __ __ __ __ __ __ __
 72
    65
 73
     2
 40
0.375
 49
0.25
 49
-0.125
  0
ENDTAB
  0
TABLE
  2
LAYER
 70
    10
  0
LAYER
  2
0
 70
     0
 62
     7
  6
CONTINUOUS
  0
LAYER
  2
VOLL
 70
     0
 62
     1
  6
CONTINUOUS
  0
LAYER
  2
DEFPOINTS
 70
     0
 62
     7
  6
CONTINUOUS
  0
LAYER
  2
ROHR
 70
     0
 62
     9
  6
CONTINUOUS
  0
ENDTAB
  0
TABLE
  2
STYLE
 70
     4
  0
STYLE
  2
STANDARD
 70
     0
 40
0.0
 41
0.8
 50
0.0
 71
     0
 42
3.5
  3
simplex.shx
  4

  0
STYLE
  2
GREEKS
 70
     0
 40
0.0
 41
0.8
 50
0.0
 71
     0
 42
2.5
  3
SIMPLEX.shx
  4

  0
ENDTAB
  0
TABLE
  2
VIEW
 70
     2
  0
ENDTAB
  0
TABLE
  2
UCS
 70
     0
  0
ENDTAB
  0
TABLE
  2
APPID
 70
    12
  0
APPID
  2
ACAD
 70
     0
  0
APPID
  2
ACAD_NAV_VCDISPLAY
 70
     0
  0
APPID
  2
ACAD_PSEXT
 70
     0
  0
APPID
  2
ACAD_EXEMPT_FROM_CAD_STANDARDS
 70
     0
  0
APPID
  2
ACAD_MLEADERVER
 70
     0
  0
APPID
  2
ACAD_DSTYLE_DIMRADIAL_EXTENSION
 70
     0
  0
APPID
  2
ACAECLAYERSTANDARD
 70
     0
  0
APPID
  2
ACCMTRANSPARENCY
 70
     0
  0
APPID
  2
ACAD_STEPID
 70
     0
  0
APPID
  2
ACAD_ASSOCPERSSUBENTMANAGER
 70
     0
  0
APPID
  2
ACADANNOMONITORALERTICONDI
 70
     0
  0
APPID
  2
ACAD_OBJECT_CHANGE_GUID
 70
     0
  0
ENDTAB
  0
TABLE
  2
DIMSTYLE
 70
     2
  0
DIMSTYLE
  2
STANDARD
 70
     0
  3

  4

  5

  6

  7

 40
1.0
 41
0.18
 42
0.0625
 43
0.38
 44
0.18
 45
0.0
 46
0.0
 47
0.0
 48
0.0
140
0.18
141
0.09
142
0.0
143
25.3999999999999986
144
1.0
145
0.0
146
1.0
147
0.09
 71
     0
 72
     0
 73
     1
 74
     1
 75
     0
 76
     0
 77
     0
 78
     0
170
     0
171
     2
172
     0
173
     0
174
     0
175
     0
176
     0
177
     0
178
     0
  0
ENDTAB
  0
ENDSEC
  0
SECTION
  2
BLOCKS
  0
BLOCK
  8
0
  2
$MODEL_SPACE
 70
     0
 10
0.0
 20
0.0
 30
0.0
  3
$MODEL_SPACE
  1

  0
ENDBLK
  5
36
  8
0
  0
BLOCK
 67
     1
  8
0
  2
$PAPER_SPACE
 70
     0
 10
0.0
 20
0.0
 30
0.0
  3
$PAPER_SPACE
  1

  0
ENDBLK
  5
34
 67
     1
  8
0
  0
BLOCK
  8
0
  2
A$C24363D82
 70
     0
 10
0.0
 20
0.0
 30
0.0
  3
A$C24363D82
  1

  0
CIRCLE
  5
20BF
  8
0
  6
CONTINUOUS
 62
     3
 10
-74.9999999999999147
 20
0.0000000000000329
 30
0.0
 40
69.9999999999996305
  0
CIRCLE
  5
20C0
  8
0
  6
CONTINUOUS
 62
     3
 10
-74.9999999999999432
 20
0.0000000000000303
 30
0.0
 40
69.0
  0
CIRCLE
  5
20C1
  8
0
  6
CONTINUOUS
 62
     3
 10
-74.9999999999999432
 20
0.0000000000000279
 30
-0.0000000000000284
 40
64.0
  0
CIRCLE
  5
20C2
  8
0
  6
CONTINUOUS
 62
     3
 10
-74.9999999999999147
 20
0.0000000000000329
 30
0.0
 40
72.7584447974061135
  0
ARC
  5
20C3
  8
0
  6
CONTINUOUS
 62
     3
 10
-0.0000000000003204
 20
-0.0000000000001095
 30
0.0
 40
63.9999999999997726
 50
179.9999999999998863
 51
234.1307522680172042
  0
ARC
  5
20C4
  8
0
  6
CONTINUOUS
 62
     3
 10
0.0000000000001343
 20
-0.0000000000001379
 30
0.0
 40
64.0000000000002558
 50
125.8692477319828953
 51
179.999999999999801
  0
ARC
  5
20C5
  8
0
  6
CONTINUOUS
 62
     3
 10
0.0
 20
0.000000000000105
 30
0.0
 40
63.3875793553185005
 50
180.0000000000001137
 51
234.3104213238036095
  0
ARC
  5
20C6
  8
0
  6
CONTINUOUS
 62
     3
 10
0.0
 20
-0.0000000000000584
 30
0.0
 40
63.3875793553185076
 50
125.6895786761963052
 51
179.9999999999998863
  0
ARC
  5
20C7
  8
0
  6
CONTINUOUS
 62
     3
 10
0.0000000000000207
 20
0.0000000000000184
 30
0.0
 40
66.5
 50
270.0
 51
90.0
  0
CIRCLE
  5
20C8
  8
0
  6
CONTINUOUS
 62
     3
 10
-74.9999999999999147
 20
0.0000000000000321
 30
0.0
 40
76.0000000125797754
  0
LINE
  5
20C9
  8
0
  6
CONTINUOUS
 62
     3
 10
-25.0628663196525494
 20
-66.4999999999999716
 30
0.0
 11
-38.2066581850448301
 21
-66.4999999999999716
 31
-0.0000000000000036
  0
LINE
  5
20CA
  8
0
  6
CONTINUOUS
 62
     3
 10
-25.0628663196525494
 20
66.5000000000000284
 30
0.0
 11
-38.206658185044823
 21
66.5000000000000284
 31
-0.0000000000000036
  0
LINE
  5
20CB
  8
0
  6
CONTINUOUS
 62
     3
 10
-25.0628663196525601
 20
-66.4999999999999858
 30
0.0
 11
0.0000000000000213
 21
-66.4999999999999858
 31
0.0
  0
LINE
  5
20CC
  8
0
  6
CONTINUOUS
 62
     3
 10
0.0000000000000064
 20
66.5000000000000142
 30
0.0
 11
-25.0628663196525885
 21
66.5000000000000142
 31
0.0
  0
CIRCLE
  5
20CD
  8
0
  6
VERDECKT
 62
     1
 10
-74.9999999999999432
 20
0.0000000000000303
 30
0.0
 40
71.5
  0
CIRCLE
  5
20CE
  8
0
  6
VERDECKT
 62
     1
 10
-74.9999999999999432
 20
0.0000000000000279
 30
-0.0000000000000284
 40
66.5
  0
ARC
  5
20CF
  8
0
  6
VERDECKT
 62
     1
 10
-0.000000000000093
 20
0.0000000000000646
 30
0.0
 40
64.0000000000000426
 50
234.1307522680170905
 51
125.8692477319827958
  0
ARC
  5
20D0
  8
0
  6
VERDECKT
 62
     1
 10
0.0
 20
0.0000000000000091
 30
0.0
 40
63.3875793553184508
 50
234.3104213238036095
 51
125.6895786761963052
  0
CIRCLE
  5
20D1
  8
0
  6
VERDECKT
 62
     1
 10
0.0
 20
0.0000000000000127
 30
0.0
 40
65.8971289491768033
  0
CIRCLE
  5
20D2
  8
0
  6
VERDECKT
 62
     1
 10
-74.9999999999999147
 20
0.0000000000000321
 30
0.0
 40
73.5000000115314549
  0
LINE
  5
20D3
  8
0
  6
VERDECKT
 62
     1
 10
-49.9371336803470385
 20
64.0000000000000284
 30
0.0
 11
-74.9999999999998863
 21
64.0000000000000284
 31
-0.0000000000000284
  0
LINE
  5
20D4
  8
0
  6
VERDECKT
 62
     1
 10
-74.9999999999999005
 20
-63.9999999999999716
 30
-0.0000000000000284
 11
-49.9371336803470314
 21
-63.9999999999999787
 31
0.0
  0
LINE
  5
20D5
  8
0
  6
VERDECKT
 62
     1
 10
-25.0628663196526702
 20
-63.9999999999999787
 30
0.0
 11
-49.9371336803470598
 21
-63.9999999999999787
 31
-0.0000000000000071
  0
LINE
  5
20D6
  8
0
  6
VERDECKT
 62
     1
 10
-25.0628663196526595
 20
64.0000000000000284
 30
0.0
 11
-49.9371336803470527
 21
64.0000000000000284
 31
-0.0000000000000071
  0
LINE
  5
20D7
  8
0
  6
VERDECKT
 62
     1
 10
-25.0628663196526702
 20
-63.9999999999999716
 30
0.0
 11
-0.0000000000000924
 21
-63.9999999999999787
 31
0.0
  0
LINE
  5
20D8
  8
0
  6
VERDECKT
 62
     1
 10
-0.000000000000093
 20
64.0000000000000142
 30
0.0
 11
-25.0628663196527093
 21
64.0000000000000142
 31
0.0
  0
LINE
  5
20D9
  8
0
  6
VERDECKT
 62
     1
 10
-49.9371336803468893
 20
66.5000000000000284
 30
0.0
 11
-74.9999999999998153
 21
66.5000000000000284
 31
-0.0000000000000284
  0
LINE
  5
20DA
  8
0
  6
VERDECKT
 62
     1
 10
-74.9999999999998295
 20
-66.4999999999999716
 30
-0.0000000000000284
 11
-49.9371336803469674
 21
-66.4999999999999716
 31
0.0
  0
LINE
  5
20DB
  8
0
  6
VERDECKT
 62
     1
 10
-38.2066581850448372
 20
-66.4999999999999716
 30
0.0
 11
-49.9371336803469177
 21
-66.4999999999999716
 31
-0.0000000000000018
  0
LINE
  5
20DC
  8
0
  6
VERDECKT
 62
     1
 10
-38.206658185044823
 20
66.5000000000000284
 30
0.0
 11
-49.9371336803469177
 21
66.5000000000000284
 31
-0.0000000000000018
  0
ENDBLK
  5
20DE
  8
0
  0
BLOCK
  8
0
  2
A$C77971705
 70
     0
 10
0.0
 20
0.0
 30
0.0
  3
A$C77971705
  1

  0
LINE
  5
20E2
  8
0
  6
CONTINUOUS
 62
     3
 10
-147.7584447974060993
 20
331.3310640280561188
 30
-0.0000000000000736
 11
-2.2415552025938719
 21
331.3310640280561188
 31
-0.0000000000000736
210
0.0
220
1.0
230
-0.0000000000000002
  0
LINE
  5
20E3
  8
0
  6
CONTINUOUS
 62
     3
 10
-65.8971289491768033
 20
0.0
 30
0.0
 11
65.8971289491768033
 21
0.0
 31
0.0
210
0.0
220
1.0
230
-0.0000000000000002
  0
LINE
  5
20E4
  8
0
  6
CONTINUOUS
 62
     3
 10
-2.2415552025938501
 20
331.3310640280561188
 30
-0.0000000000000736
 11
-1.81076638890115
 21
330.4072344358143027
 31
-0.0000000000000734
210
0.0
220
1.0
230
-0.0000000000000002
  0
LINE
  5
20E5
  8
0
  6
CONTINUOUS
 62
     3
 10
-147.7584447974060993
 20
331.3310640280561188
 30
-0.0000000000000736
 11
-148.189233611098814
 21
330.4072344358143027
 31
-0.0000000000000734
210
0.0
220
1.0
230
-0.0000000000000002
  0
ARC
  5
20E6
  8
0
  6
CONTINUOUS
 62
     3
 10
121.0039185776606985
 20
317.7295553113443134
 30
0.0
 40
29.9960814349190805
210
0.0
220
-0.0000000000000002
230
-1.0
 50
359.9983406354634212
 51
25.0016593645398189
  0
ARC
  5
20E7
  8
0
  6
CONTINUOUS
 62
     3
 10
28.9960814223390706
 20
317.7295553113444271
 30
0.0
 40
29.9960814349188389
210
0.0
220
-0.0000000000000002
230
-1.0
 50
154.9983406354600959
 51
180.0016593645366925
  0
LINE
  5
20E8
  8
0
  6
CONTINUOUS
 62
     3
 10
-150.9997362596920993
 20
308.6220640280560019
 30
-0.0000000000000685
 11
-151.0
 21
317.7286865835918093
 31
-0.0000000000000705
210
0.0
220
1.0
230
-0.0000000000000002
  0
LINE
  5
20E9
  8
0
  6
CONTINUOUS
 62
     3
 10
0.9997362596920993
 20
308.6220640280560019
 30
-0.0000000000000685
 11
1.0
 21
317.7286865835918093
 31
-0.0000000000000705
210
0.0
220
1.0
230
-0.0000000000000002
  0
ARC
  5
20EA
  8
0
  6
CONTINUOUS
 62
     3
 10
121.0000000000131024
 20
308.6220640280531029
 30
0.0
 40
29.9997362596789792
210
0.0
220
-0.0000000000000002
230
-1.0
 50
334.9928416634436985
 51
0.0000000000056487
  0
ARC
  5
20EB
  8
0
  6
CONTINUOUS
 62
     3
 10
28.9999999999865992
 20
308.6220640280529892
 30
0.0
 40
29.9997362596787092
210
0.0
220
-0.0000000000000002
230
-1.0
 50
179.999999999994202
 51
205.0071583365563868
  0
ARC
  5
20EC
  8
0
  6
CONTINUOUS
 62
     3
 10
164.4999999999996874
 20
288.3310640280561188
 30
0.0
 40
17.9999999999997691
210
0.0
220
-0.0000000000000002
230
-1.0
 50
154.9928416634448922
 51
180.0
  0
ARC
  5
20ED
  8
0
  6
CONTINUOUS
 62
     3
 10
-14.5000000000003997
 20
288.3310640280560051
 30
0.0
 40
18.0000000000003908
210
0.0
220
-0.0000000000000002
230
-1.0
 50
0.0000000000003689
 51
25.00715833655455
  0
LINE
  5
20EE
  8
0
  6
CONTINUOUS
 62
     3
 10
-3.5
 20
288.3310640280561188
 30
-0.000000000000064
 11
-3.5
 21
264.7997834507273183
 31
-0.0000000000000588
210
0.0
220
1.0
230
-0.0000000000000002
  0
LINE
  5
20EF
  8
0
  6
CONTINUOUS
 62
     3
 10
-146.5
 20
288.3310640280561188
 30
-0.000000000000064
 11
-146.5
 21
264.7997834507273183
 31
-0.0000000000000588
210
0.0
220
1.0
230
-0.0000000000000002
  0
ARC
  5
20F0
  8
0
  6
CONTINUOUS
 62
     3
 10
128.500000000000199
 20
264.7997834507272046
 30
0.0
 40
17.9999999999997904
210
0.0
220
-0.0000000000000002
230
-1.0
 50
325.2280559680501142
 51
0.0000000000001845
  0
ARC
  5
20F1
  8
0
  6
CONTINUOUS
 62
     3
 10
21.4999999999995204
 20
264.7997834507270909
 30
0.0
 40
17.9999999999994991
210
0.0
220
-0.0000000000000002
230
-1.0
 50
179.9999999999994031
 51
214.7719440319501132
  0
ARC
  5
20F2
  8
0
  6
CONTINUOUS
 62
     3
 10
151.4999999999976126
 20
248.8310640280566872
 30
0.0
 40
9.9999999999976463
210
0.0
220
-0.0000000000000002
230
-1.0
 50
145.2280559680488921
 51
180.000000000002899
  0
ARC
  5
20F3
  8
0
  6
CONTINUOUS
 62
     3
 10
-1.4999999999976741
 20
248.831064028056602
 30
0.0
 40
9.9999999999976747
210
0.0
220
-0.0000000000000002
230
-1.0
 50
359.9999999999973284
 51
34.7719440319511506
  0
LINE
  5
20F4
  8
0
  6
CONTINUOUS
 62
     3
 10
-8.5
 20
248.8310640280562041
 30
-0.0000000000000553
 11
-8.5
 21
244.4410640280551092
 31
-0.0000000000000543
210
0.0
220
1.0
230
-0.0000000000000002
  0
LINE
  5
20F5
  8
0
  6
CONTINUOUS
 62
     3
 10
-141.5
 20
248.8310640280562041
 30
-0.0000000000000553
 11
-141.5
 21
244.4410640280559903
 31
-0.0000000000000543
210
0.0
220
1.0
230
-0.0000000000000002
  0
LINE
  5
20F6
  8
0
  6
CONTINUOUS
 62
     3
 10
-65.8971289491768744
 20
-0.0000000000000071
 30
0.0
 11
-66.5000000000000568
 21
93.8899999999995742
 31
-0.0000000000000208
210
0.0
220
1.0
230
-0.0000000000000002
  0
LINE
  5
20F7
  8
0
  6
CONTINUOUS
 62
     3
 10
65.8971289491768744
 20
-0.0000000000000071
 30
0.0
 11
66.5000000000000568
 21
93.8899999999990769
 31
-0.0000000000000208
210
0.0
220
1.0
230
-0.0000000000000002
  0
ARC
  5
20F8
  8
0
  6
CONTINUOUS
 62
     3
 10
-15.0000000000004494
 20
244.4410640280557061
 30
0.0
 40
156.5000000000003126
210
0.0
220
-0.0000000000000002
230
-1.0
 50
316.1804242593706817
 51
0.0000000000000954
  0
ARC
  5
20F9
  8
0
  6
CONTINUOUS
 62
     3
 10
15.0000000000002895
 20
244.4410640280555924
 30
-0.0000000000000543
 40
23.5000000000001599
 50
180.0000000000013074
 51
223.8195757406305972
  0
LINE
  5
20FA
  8
0
  6
CONTINUOUS
 62
     3
 10
-73.0441928723538325
 20
110.161158675707199
 30
-0.0000000000000245
 11
-97.9184602330481937
 21
136.0820711451503939
 31
-0.0000000000000302
210
0.0
220
1.0
230
-0.0000000000000002
  0
LINE
  5
20FB
  8
0
  6
CONTINUOUS
 62
     3
 10
22.9184602330486804
 20
202.2489928829041048
 30
-0.0000000000000449
 11
-1.9558071276456941
 21
228.169905352347314
 31
-0.0000000000000507
210
0.0
220
1.0
230
-0.0000000000000002
  0
ARC
  5
20FC
  8
0
  6
CONTINUOUS
 62
     3
 10
89.9999999999999147
 20
93.8899999999993469
 30
0.0
 40
156.4999999999998863
210
0.0
220
-0.0000000000000002
230
-1.0
 50
136.1804242593709091
 51
180.0
  0
ARC
  5
20FD
  8
0
  6
CONTINUOUS
 62
     3
 10
-90.0000000000000284
 20
93.8899999999993042
 30
-0.0000000000000208
 40
23.5000000000000284
 50
0.0000000000006616
 51
43.8195757406295172
  0
LINE
  5
20FE
  8
0
  6
VERDECKT
 62
     1
 10
-5.0000000000003268
 20
331.3310640280561188
 30
-0.0000000000000736
 11
-4.0765358564927281
 21
329.3506887814626793
 31
-0.0000000000000731
210
0.0
220
1.0
230
-0.0000000000000002
  0
LINE
  5
20FF
  8
0
  6
VERDECKT
 62
     1
 10
-144.9999999999994884
 20
331.331064028056403
 30
-0.0000000000000736
 11
-145.9234641435072035
 21
329.3506887814626793
 31
-0.0000000000000731
210
0.0
220
1.0
230
-0.0000000000000002
  0
ARC
  5
2100
  8
0
  6
VERDECKT
 62
     1
 10
121.0035920295233041
 20
317.7294829173656012
 30
0.0
 40
27.4964079820081508
210
0.0
220
-0.0000000000000002
230
-1.0
 50
359.9983406354620001
 51
25.0016593645401102
  0
ARC
  5
2101
  8
0
  6
VERDECKT
 62
     1
 10
28.9964079704759001
 20
317.7294829173657149
 30
0.0
 40
27.4964079820073515
210
0.0
220
-0.0000000000000002
230
-1.0
 50
154.998340635459499
 51
180.0016593645381988
  0
LINE
  5
2102
  8
0
  6
VERDECKT
 62
     1
 10
-148.4997362596920993
 20
308.6220640280560019
 30
-0.0000000000000685
 11
-148.5
 21
317.7286865835918093
 31
-0.0000000000000705
210
0.0
220
1.0
230
-0.0000000000000002
  0
LINE
  5
2103
  8
0
  6
VERDECKT
 62
     1
 10
-1.5002637403079
 20
308.6220640280560019
 30
-0.0000000000000685
 11
-1.5
 21
317.7286865835918093
 31
-0.0000000000000705
210
0.0
220
1.0
230
-0.0000000000000002
  0
ARC
  5
2104
  8
0
  6
VERDECKT
 62
     1
 10
120.9999999999910045
 20
308.6220640280581051
 30
0.0
 40
27.4997362597010486
210
0.0
220
-0.0000000000000002
230
-1.0
 50
334.9928416634497808
 51
359.9999999999956799
  0
ARC
  5
2105
  8
0
  6
VERDECKT
 62
     1
 10
29.0000000000095106
 20
308.6220640280582757
 30
0.0
 40
27.4997362597016206
210
0.0
220
-0.0000000000000002
230
-1.0
 50
180.0000000000046043
 51
205.0071583365499919
  0
ARC
  5
2106
  8
0
  6
VERDECKT
 62
     1
 10
164.5000000000021032
 20
288.3310640280558914
 30
0.0
 40
20.5000000000021316
210
0.0
220
-0.0000000000000002
230
-1.0
 50
154.9928416634521113
 51
179.9999999999990905
  0
ARC
  5
2107
  8
0
  6
VERDECKT
 62
     1
 10
-14.5000000000014904
 20
288.3310640280558914
 30
0.0
 40
20.5000000000014886
210
0.0
220
-0.0000000000000002
230
-1.0
 50
0.0000000000004834
 51
25.0071583365483612
  0
LINE
  5
2108
  8
0
  6
VERDECKT
 62
     1
 10
-6.0
 20
288.3310640280561188
 30
-0.000000000000064
 11
-6.0
 21
264.7997834507273183
 31
-0.0000000000000588
210
0.0
220
1.0
230
-0.0000000000000002
  0
LINE
  5
2109
  8
0
  6
VERDECKT
 62
     1
 10
-144.0
 20
288.3310640280561188
 30
-0.000000000000064
 11
-144.0
 21
264.7997834507273183
 31
-0.0000000000000588
210
0.0
220
1.0
230
-0.0000000000000002
  0
ARC
  5
210A
  8
0
  6
VERDECKT
 62
     1
 10
128.5000000000021885
 20
264.799783450726693
 30
0.0
 40
15.4999999999977796
210
0.0
220
-0.0000000000000002
230
-1.0
 50
325.2280559680497731
 51
0.0000000000018892
  0
ARC
  5
210B
  8
0
  6
VERDECKT
 62
     1
 10
21.4999999999980211
 20
264.7997834507268067
 30
0.0
 40
15.49999999999803
210
0.0
220
-0.0000000000000002
230
-1.0
 50
179.9999999999982947
 51
214.7719440319498005
  0
ARC
  5
210C
  8
0
  6
VERDECKT
 62
     1
 10
151.4999999999994884
 20
248.8310640280562893
 30
0.0
 40
12.4999999999994902
210
0.0
220
-0.0000000000000002
230
-1.0
 50
145.2280559680494036
 51
180.0000000000005969
  0
ARC
  5
210D
  8
0
  6
VERDECKT
 62
     1
 10
-1.4999999999992799
 20
248.8310640280562893
 30
0.0
 40
12.4999999999992806
210
0.0
220
-0.0000000000000002
230
-1.0
 50
359.9999999999990905
 51
34.7719440319509019
  0
LINE
  5
210E
  8
0
  6
VERDECKT
 62
     1
 10
-11.0
 20
248.8310640280562041
 30
-0.0000000000000553
 11
-11.0
 21
244.4410640280557914
 31
-0.0000000000000543
210
0.0
220
1.0
230
-0.0000000000000002
  0
LINE
  5
210F
  8
0
  6
VERDECKT
 62
     1
 10
-139.0
 20
248.8310640280562041
 30
-0.0000000000000553
 11
-139.0
 21
244.4410640280559051
 31
-0.0000000000000543
210
0.0
220
1.0
230
-0.0000000000000002
  0
LINE
  5
2110
  8
0
  6
VERDECKT
 62
     1
 10
64.0
 20
93.8899999999987642
 30
-0.0000000000000208
 11
64.0
 21
7.000000000000826
 31
-0.0000000000000016
210
0.0
220
1.0
230
-0.0000000000000002
  0
LINE
  5
2111
  8
0
  6
VERDECKT
 62
     1
 10
-64.0
 20
93.8899999999995742
 30
-0.0000000000000208
 11
-64.0
 21
7.000000000000826
 31
-0.0000000000000016
210
0.0
220
1.0
230
-0.0000000000000002
  0
LINE
  5
2112
  8
0
  6
VERDECKT
 62
     1
 10
-63.3875793553184508
 20
0.0000000000000049
 30
0.0
 11
-63.9999999999999503
 21
7.0000000000008313
 31
-0.0000000000000016
210
0.0
220
1.0
230
-0.0000000000000002
  0
LINE
  5
2113
  8
0
  6
VERDECKT
 62
     1
 10
63.3875793553184508
 20
-0.0000000000000004
 30
0.0
 11
63.9999999999999503
 21
7.0000000000008313
 31
-0.0000000000000016
210
0.0
220
1.0
230
-0.0000000000000002
  0
ARC
  5
2114
  8
0
  6
VERDECKT
 62
     1
 10
-14.9999999999999094
 20
244.4410640280555072
 30
0.0
 40
153.999999999999801
210
0.0
220
-0.0000000000000002
230
-1.0
 50
316.1804242593706817
 51
0.0000000000001527
  0
ARC
  5
2115
  8
0
  6
VERDECKT
 62
     1
 10
15.0000000000000107
 20
244.4410640280555072
 30
-0.0000000000000543
 40
25.9999999999999716
 50
179.9999999999994884
 51
223.8195757406303983
  0
LINE
  5
2116
  8
0
  6
VERDECKT
 62
     1
 10
-71.2403836034553848
 20
111.8921330029101
 30
-0.0000000000000248
 11
-96.1146509641497602
 21
137.8130454723533092
 31
-0.0000000000000306
210
0.0
220
1.0
230
-0.0000000000000002
  0
LINE
  5
2117
  8
0
  6
VERDECKT
 62
     1
 10
21.1146509641500302
 20
200.5180185557011896
 30
-0.0000000000000445
 11
-3.7596163965443772
 21
226.4389310251443987
 31
-0.0000000000000503
210
0.0
220
1.0
230
-0.0000000000000002
  0
ARC
  5
2118
  8
0
  6
VERDECKT
 62
     1
 10
89.9999999999999574
 20
93.8899999999993753
 30
0.0
 40
153.999999999999801
210
0.0
220
-0.0000000000000002
230
-1.0
 50
136.1804242593709091
 51
180.0000000000001137
  0
ARC
  5
2119
  8
0
  6
VERDECKT
 62
     1
 10
-90.0000000000001705
 20
93.8899999999992758
 30
-0.0000000000000208
 40
26.0000000000000604
 50
0.0000000000006616
 51
43.8195757406294035
  0
ENDBLK
  5
211B
  8
0
  0
ENDSEC
  0
SECTION
  2
ENTITIES
  0
TEXT
  5
8F
  8
VOLL
 10
78.076754716981128
 20
31.025947764705851
 30
0.0
 40
1.8
  1

  7
GREEKS
  0
TEXT
  5
1AFE
  8
VOLL
 10
532.5491097809933763
 20
435.6835228527843924
 30
0.0
 40
1.8
  1

  7
GREEKS
  0
INSERT
  5
20DF
  8
ROHR
  2
A$C24363D82
 10
0.0
 20
0.0000000000000127
 30
0.0
  0
INSERT
  5
211C
  8
ROHR
  2
A$C77971705
 10
0.0000000000000247
 20
162.0108831285429005
 30
0.0
  0
VIEWPORT
  5
1E5F
 67
     1
  8
0
 10
3.723313566457612
 20
4.1529007163514633
 30
0.0
 40
16.3395178293376091
 41
8.6790144438325125
 68
     1
 69
     1
1001
ACAD
1000
MVIEW
1002
{
1070
    16
1010
0.0
1020
0.0
1030
0.0
1010
0.0
1020
0.0
1030
1.0
1040
0.0
1040
8.6790144438325125
1040
3.723313566457612
1040
4.1529007163514633
1040
50.0
1040
0.0
1040
0.0
1070
     0
1070
  1500
1070
     1
1070
     1
1070
     0
1070
     0
1070
     0
1070
     0
1040
0.0
1040
0.0
1040
0.0
1040
10.0
1040
10.0
1040
10.0
1040
10.0
1070
     0
1002
{
1002
}
1002
}
  0
ENDSEC
  0
EOF
