  0
SECTION
  2
HEADER
  9
$ACADVER
  1
AC1009
  9
$INSBASE
 10
0.0
 20
0.0
 30
0.0
  9
$EXTMIN
 10
-101.7239605097237956
 20
-51.3110095483873465
 30
-0.0096123037041025
  9
$EXTMAX
 10
125.4327001349801947
 20
409.6324829702666079
 30
0.0144199223890382
  9
$LIMMIN
 10
0.0
 20
0.0
  9
$LIMMAX
 10
419.9999999999998863
 20
594.0
  9
$ORTHOMODE
 70
     1
  9
$REGENMODE
 70
     1
  9
$FILLMODE
 70
     1
  9
$QTEXTMODE
 70
     0
  9
$MIRRTEXT
 70
     1
  9
$DRAGMODE
 70
     2
  9
$LTSCALE
 40
20.0
  9
$OSMODE
 70
  1327
  9
$ATTMODE
 70
     1
  9
$TEXTSIZE
 40
3.5
  9
$TRACEWID
 40
0.5
  9
$TEXTSTYLE
  7
STANDARD
  9
$CLAYER
  8
DEFPOINTS
  9
$CELTYPE
  6
BYLAYER
  9
$CECOLOR
 62
   256
  9
$DIMSCALE
 40
2.0
  9
$DIMASZ
 40
3.5
  9
$DIMEXO
 40
1.0
  9
$DIMDLI
 40
7.0
  9
$DIMRND
 40
0.0
  9
$DIMDLE
 40
0.0
  9
$DIMEXE
 40
1.0
  9
$DIMTP
 40
0.0
  9
$DIMTM
 40
0.0
  9
$DIMTXT
 40
3.5
  9
$DIMCEN
 40
1.5
  9
$DIMTSZ
 40
0.0
  9
$DIMTOL
 70
     0
  9
$DIMLIM
 70
     0
  9
$DIMTIH
 70
     0
  9
$DIMTOH
 70
     0
  9
$DIMSE1
 70
     0
  9
$DIMSE2
 70
     0
  9
$DIMTAD
 70
     1
  9
$DIMZIN
 70
     8
  9
$DIMBLK
  1

  9
$DIMASO
 70
     1
  9
$DIMSHO
 70
     0
  9
$DIMPOST
  1

  9
$DIMAPOST
  1

  9
$DIMALT
 70
     0
  9
$DIMALTD
 70
     2
  9
$DIMALTF
 40
25.3999999999999986
  9
$DIMLFAC
 40
1.0
  9
$DIMTOFL
 70
     1
  9
$DIMTVP
 40
0.0
  9
$DIMTIX
 70
     0
  9
$DIMSOXD
 70
     0
  9
$DIMSAH
 70
     0
  9
$DIMBLK1
  1

  9
$DIMBLK2
  1

  9
$DIMSTYLE
  2
STANDARD
  9
$DIMCLRD
 70
     0
  9
$DIMCLRE
 70
     0
  9
$DIMCLRT
 70
     1
  9
$DIMTFAC
 40
0.5142857142857143
  9
$DIMGAP
 40
1.5
  9
$LUNITS
 70
     2
  9
$LUPREC
 70
     2
  9
$SKETCHINC
 40
1.0
  9
$FILLETRAD
 40
82.5
  9
$AUNITS
 70
     0
  9
$AUPREC
 70
     0
  9
$MENU
  1
ACAD
  9
$ELEVATION
 40
0.0
  9
$PELEVATION
 40
0.0
  9
$THICKNESS
 40
0.0
  9
$LIMCHECK
 70
     0
  9
$BLIPMODE
 70
     0
  9
$CHAMFERA
 40
0.0
  9
$CHAMFERB
 40
0.0
  9
$SKPOLY
 70
     0
  9
$TDCREATE
 40
2455397.8646990740671754
  9
$TDUPDATE
 40
2458383.586226852145046
  9
$TDINDWG
 40
0.1181127546
  9
$TDUSRTIMER
 40
0.1181127546
  9
$USRTIMER
 70
     1
  9
$ANGBASE
 50
0.0
  9
$ANGDIR
 70
     0
  9
$PDMODE
 70
     0
  9
$PDSIZE
 40
0.0
  9
$PLINEWID
 40
0.0
  9
$COORDS
 70
     1
  9
$SPLFRAME
 70
     0
  9
$SPLINETYPE
 70
     6
  9
$SPLINESEGS
 70
     8
  9
$ATTDIA
 70
     0
  9
$ATTREQ
 70
     0
  9
$HANDLING
 70
     1
  9
$HANDSEED
  5
1C3B
  9
$SURFTAB1
 70
     6
  9
$SURFTAB2
 70
     6
  9
$SURFTYPE
 70
     6
  9
$SURFU
 70
     6
  9
$SURFV
 70
     6
  9
$UCSNAME
  2

  9
$UCSORG
 10
0.0
 20
0.0
 30
0.0
  9
$UCSXDIR
 10
1.0
 20
0.0
 30
0.0
  9
$UCSYDIR
 10
0.0
 20
1.0
 30
0.0
  9
$PUCSNAME
  2

  9
$PUCSORG
 10
0.0
 20
0.0
 30
0.0
  9
$PUCSXDIR
 10
1.0
 20
0.0
 30
0.0
  9
$PUCSYDIR
 10
0.0
 20
1.0
 30
0.0
  9
$USERI1
 70
     0
  9
$USERI2
 70
     0
  9
$USERI3
 70
     0
  9
$USERI4
 70
     0
  9
$USERI5
 70
     0
  9
$USERR1
 40
0.0
  9
$USERR2
 40
0.0
  9
$USERR3
 40
0.0
  9
$USERR4
 40
0.0
  9
$USERR5
 40
0.0
  9
$WORLDVIEW
 70
     1
  9
$SHADEDGE
 70
     3
  9
$SHADEDIF
 70
    70
  9
$TILEMODE
 70
     1
  9
$MAXACTVP
 70
    16
  9
$PLIMCHECK
 70
     0
  9
$PEXTMIN
 10
-0.1168978004450167
 20
-0.1565507640635815
 30
-0.0000000349181948
  9
$PEXTMAX
 10
7.5352321554492754
 20
10.4384365743202601
 30
0.0000000814935746
  9
$PLIMMIN
 10
-0.2500002402958907
 20
-0.2499999962453767
  9
$PLIMMAX
 10
10.7499995194082203
 20
8.2499997634587334
  9
$UNITMODE
 70
     0
  9
$VISRETAIN
 70
     0
  9
$PLINEGEN
 70
     0
  9
$PSLTSCALE
 70
     0
  0
ENDSEC
  0
SECTION
  2
TABLES
  0
TABLE
  2
VPORT
 70
     1
  0
VPORT
  2
*ACTIVE
 70
     0
 10
0.0
 20
0.0
 11
1.0
 21
1.0
 12
-20.6734517197106094
 22
43.4530763230570685
 13
0.0
 23
0.0
 14
1.0
 24
1.0
 15
10.0
 25
10.0
 16
-0.0000000000003126
 26
0.0
 36
1402.5436241160239206
 17
32.5278215323387982
 27
135.707660387882612
 37
157.5
 40
464.3919475749032131
 41
1.8826466916354549
 42
50.0
 43
0.0
 44
0.0
 50
0.0
 51
0.0
 71
     0
 72
  1500
 73
     1
 74
     0
 75
     0
 76
     0
 77
     0
 78
     0
  0
ENDTAB
  0
TABLE
  2
LTYPE
 70
     3
  0
LTYPE
  2
CONTINUOUS
 70
     0
  3
Solid line
 72
    65
 73
     0
 40
0.0
  0
LTYPE
  2
VERDECKT
 70
     0
  3
Verdeckt __ __ __ __ __ __ __ __ __ __ __ __ __
 72
    65
 73
     2
 40
0.375
 49
0.25
 49
-0.125
  0
ENDTAB
  0
TABLE
  2
LAYER
 70
    10
  0
LAYER
  2
0
 70
     0
 62
     7
  6
CONTINUOUS
  0
LAYER
  2
VOLL
 70
     0
 62
     1
  6
CONTINUOUS
  0
LAYER
  2
DEFPOINTS
 70
     0
 62
     7
  6
CONTINUOUS
  0
ENDTAB
  0
TABLE
  2
STYLE
 70
     4
  0
STYLE
  2
STANDARD
 70
     0
 40
0.0
 41
0.8
 50
0.0
 71
     0
 42
3.5
  3
simplex.shx
  4

  0
STYLE
  2
GREEKS
 70
     0
 40
0.0
 41
0.8
 50
0.0
 71
     0
 42
2.5
  3
SIMPLEX.shx
  4

  0
ENDTAB
  0
TABLE
  2
VIEW
 70
     3
  0
ENDTAB
  0
TABLE
  2
UCS
 70
     0
  0
ENDTAB
  0
TABLE
  2
APPID
 70
     8
  0
APPID
  2
ACAD
 70
     0
  0
APPID
  2
ACAD_NAV_VCDISPLAY
 70
     0
  0
APPID
  2
ACAD_PSEXT
 70
     0
  0
APPID
  2
ACAD_EXEMPT_FROM_CAD_STANDARDS
 70
     0
  0
APPID
  2
ACAD_MLEADERVER
 70
     0
  0
APPID
  2
ACAECLAYERSTANDARD
 70
     0
  0
APPID
  2
ACCMTRANSPARENCY
 70
     0
  0
APPID
  2
ACAD_OBJECT_CHANGE_GUID
 70
     0
  0
ENDTAB
  0
TABLE
  2
DIMSTYLE
 70
     2
  0
DIMSTYLE
  2
STANDARD
 70
     0
  3

  4

  5

  6

  7

 40
1.0
 41
0.18
 42
0.0625
 43
0.38
 44
0.18
 45
0.0
 46
0.0
 47
0.0
 48
0.0
140
0.18
141
0.09
142
0.0
143
25.3999999999999986
144
1.0
145
0.0
146
1.0
147
0.09
 71
     0
 72
     0
 73
     1
 74
     1
 75
     0
 76
     0
 77
     0
 78
     0
170
     0
171
     2
172
     0
173
     0
174
     0
175
     0
176
     0
177
     0
178
     0
  0
ENDTAB
  0
ENDSEC
  0
SECTION
  2
BLOCKS
  0
BLOCK
  8
0
  2
$MODEL_SPACE
 70
     0
 10
0.0
 20
0.0
 30
0.0
  3
$MODEL_SPACE
  1

  0
ENDBLK
  5
36
  8
0
  0
BLOCK
 67
     1
  8
0
  2
$PAPER_SPACE
 70
     0
 10
0.0
 20
0.0
 30
0.0
  3
$PAPER_SPACE
  1

  0
ENDBLK
  5
34
 67
     1
  8
0
  0
BLOCK
  8
0
  2
A$C39D1770E
 70
     0
 10
0.0
 20
0.0
 30
0.0
  3
A$C39D1770E
  1

  0
ARC
  5
1B8C
  8
0
  6
CONTINUOUS
 62
     3
 10
49.3518800650540683
 20
7.70766010071645
 30
0.0000000000000142
 40
49.0000000000002274
 50
180.0000000000001137
 51
220.0657662857543073
  0
ARC
  5
1B8D
  8
0
  6
CONTINUOUS
 62
     3
 10
49.3518800650540683
 20
7.7076601007162493
 30
0.0000000000000142
 40
49.0000000000002274
 50
139.9342337142456927
 51
179.9999999999998863
  0
ARC
  5
1B8E
  8
0
  6
CONTINUOUS
 62
     3
 10
49.3518800650535923
 20
7.7076601007161907
 30
0.0000000000000109
 40
47.9424963626020073
 50
179.999999999999801
 51
219.8314991778406977
  0
ARC
  5
1B8F
  8
0
  6
CONTINUOUS
 62
     3
 10
49.3518800650535923
 20
7.7076601007164838
 30
0.0000000000000109
 40
47.9424963626020002
 50
140.1685008221593023
 51
180.0000000000001137
  0
ARC
  5
1B90
  8
0
  6
CONTINUOUS
 62
     3
 10
49.351880065053841
 20
7.7076601007163541
 30
0.0000000000000142
 40
51.0
 50
270.0
 51
90.0
  0
CIRCLE
  5
1B91
  8
0
  6
CONTINUOUS
 62
     3
 10
-25.6481199349464504
 20
7.7076601007163701
 30
0.0
 40
53.4999999999999005
  0
CIRCLE
  5
1B92
  8
0
  6
CONTINUOUS
 62
     3
 10
-25.6481199349463509
 20
7.7076601007163683
 30
0.0
 40
53.0000000000000568
  0
CIRCLE
  5
1B93
  8
0
  6
CONTINUOUS
 62
     3
 10
-25.6481199349463616
 20
7.7076601007163648
 30
0.0
 40
49.0000000000001066
  0
CIRCLE
  5
1B94
  8
0
  6
CONTINUOUS
 62
     3
 10
-25.6481199349464504
 20
7.7076601007163701
 30
0.0
 40
55.7067558379250229
  0
CIRCLE
  5
1B95
  8
0
  6
CONTINUOUS
 62
     3
 10
-25.6481199349464504
 20
7.7076601007163701
 30
0.0
 40
59.0000000000000213
  0
LINE
  5
1B96
  8
0
  6
CONTINUOUS
 62
     3
 10
28.8493547481122405
 20
-43.2923398992836397
 30
0.0
 11
4.0166740134362007
 21
-43.2923398992836397
 31
-0.0000000000000071
  0
LINE
  5
1B97
  8
0
  6
CONTINUOUS
 62
     3
 10
28.8493547481122405
 20
58.7076601007163603
 30
0.0
 11
4.0166740134362398
 21
58.7076601007163603
 31
-0.0000000000000071
  0
LINE
  5
1B98
  8
0
  6
CONTINUOUS
 62
     3
 10
28.8493547481122512
 20
-43.2923398992836397
 30
0.0
 11
49.351880065053841
 21
-43.2923398992836397
 31
0.0000000000000142
  0
LINE
  5
1B99
  8
0
  6
CONTINUOUS
 62
     3
 10
49.3518800650538267
 20
58.7076601007163603
 30
0.0000000000000142
 11
28.8493547481122192
 21
58.7076601007163603
 31
0.0
  0
ARC
  5
1B9A
  8
0
  6
VERDECKT
 62
     1
 10
49.351880065053841
 20
7.7076601007163639
 30
0.0000000000000142
 40
48.9999999999999929
 50
220.0657662857543926
 51
139.9342337142456074
  0
ARC
  5
1B9B
  8
0
  6
VERDECKT
 62
     1
 10
49.3518800650538196
 20
7.7076601007163461
 30
0.0000000000000109
 40
47.9424963626022631
 50
219.8314991778406124
 51
140.1685008221593023
  0
ARC
  5
1B9C
  8
0
  6
VERDECKT
 62
     1
 10
49.351880065053841
 20
7.7076601007163612
 30
0.0000000000000142
 40
51.0
 50
90.0
 51
270.0
  0
CIRCLE
  5
1B9D
  8
0
  6
VERDECKT
 62
     1
 10
49.3518800650538196
 20
7.7076601007163514
 30
0.0000000000000109
 40
49.9501360376889281
  0
CIRCLE
  5
1B9E
  8
0
  6
VERDECKT
 62
     1
 10
-25.6481199349464504
 20
7.7076601007163701
 30
0.0
 40
57.0000000000000213
  0
CIRCLE
  5
1B9F
  8
0
  6
VERDECKT
 62
     1
 10
-25.6481199349463509
 20
7.7076601007163683
 30
0.0
 40
55.0000000000000711
  0
CIRCLE
  5
1BA0
  8
0
  6
VERDECKT
 62
     1
 10
-25.6481199349463616
 20
7.7076601007163648
 30
0.0
 40
51.0000000000002132
  0
LINE
  5
1BA1
  8
0
  6
VERDECKT
 62
     1
 10
-5.1455946180046386
 20
56.7076601007163674
 30
0.0
 11
-25.64811993494612
 21
56.7076601007163674
 31
0.0
  0
LINE
  5
1BA2
  8
0
  6
VERDECKT
 62
     1
 10
-25.6481199349461413
 20
-41.2923398992836326
 30
0.0
 11
-5.1455946180046581
 21
-41.2923398992836326
 31
0.0
  0
LINE
  5
1BA3
  8
0
  6
VERDECKT
 62
     1
 10
28.8493547481123507
 20
-41.2923398992836397
 30
0.0
 11
-5.1455946180046084
 21
-41.2923398992836397
 31
-0.0000000000000071
  0
LINE
  5
1BA4
  8
0
  6
VERDECKT
 62
     1
 10
28.8493547481123613
 20
56.7076601007163603
 30
0.0
 11
-5.1455946180046013
 21
56.7076601007163603
 31
-0.0000000000000071
  0
LINE
  5
1BA5
  8
0
  6
VERDECKT
 62
     1
 10
28.84935474811234
 20
-41.2923398992836397
 30
0.0
 11
49.351880065053841
 21
-41.2923398992836397
 31
0.0000000000000142
  0
LINE
  5
1BA6
  8
0
  6
VERDECKT
 62
     1
 10
49.3518800650538481
 20
56.7076601007163603
 30
0.0000000000000142
 11
28.8493547481123187
 21
56.7076601007163603
 31
0.0
  0
LINE
  5
1BA7
  8
0
  6
VERDECKT
 62
     1
 10
-5.1455946180048731
 20
58.7076601007163674
 30
0.0
 11
-25.6481199349462905
 21
58.7076601007163674
 31
0.0
  0
LINE
  5
1BA8
  8
0
  6
VERDECKT
 62
     1
 10
-25.6481199349463012
 20
-43.2923398992836326
 30
0.0
 11
-5.1455946180048642
 21
-43.2923398992836326
 31
0.0
  0
LINE
  5
1BA9
  8
0
  6
VERDECKT
 62
     1
 10
4.0166740134361989
 20
-43.2923398992836397
 30
0.0
 11
-5.1455946180049281
 21
-43.2923398992836397
 31
-0.0000000000000018
  0
LINE
  5
1BAA
  8
0
  6
VERDECKT
 62
     1
 10
4.016674013436238
 20
58.7076601007163603
 30
0.0
 11
-5.145594618004921
 21
58.7076601007163603
 31
-0.0000000000000018
  0
ENDBLK
  5
1BAC
  8
0
  0
BLOCK
  8
0
  2
A$C33D0236A
 70
     0
 10
0.0
 20
0.0
 30
0.0
  3
A$C33D0236A
  1

  0
LINE
  5
1BB0
  8
0
  6
CONTINUOUS
 62
     3
 10
-0.5982559726351157
 20
0.0
 30
0.0
 11
99.3020161027427548
 21
0.0
 31
0.0
210
0.0
220
1.0
230
-0.0000000000000002
  0
LINE
  5
1BB1
  8
0
  6
CONTINUOUS
 62
     3
 10
-81.3548757728715373
 20
314.9999999999998863
 30
-0.0000000000000699
 11
30.0586359029784909
 21
315.0000000000002274
 31
-0.0000000000000699
210
0.0
220
1.0
230
-0.0000000000000002
  0
LINE
  5
1BB2
  8
0
  6
CONTINUOUS
 62
     3
 10
100.3518800650538054
 20
95.0000000000003695
 30
-0.0000000000000211
 11
100.3518800650538054
 21
12.0
 31
-0.0000000000000027
210
0.0
220
1.0
230
-0.0000000000000002
  0
LINE
  5
1BB3
  8
0
  6
CONTINUOUS
 62
     3
 10
-1.6481199349461799
 20
95.0000000000005542
 30
-0.0000000000000211
 11
-1.6481199349461799
 21
12.0
 31
-0.0000000000000027
210
0.0
220
1.0
230
-0.0000000000000002
  0
LINE
  5
1BB4
  8
0
  6
CONTINUOUS
 62
     3
 10
-0.5982559726351155
 20
-0.0000000000000009
 30
0.0
 11
-1.6481199349461799
 21
12.0
 31
-0.0000000000000027
210
0.0
220
1.0
230
-0.0000000000000002
  0
LINE
  5
1BB5
  8
0
  6
CONTINUOUS
 62
     3
 10
99.3020161027427548
 20
-0.0000000000000009
 30
0.0
 11
100.3518800650538054
 21
12.0
 31
-0.0000000000000027
210
0.0
220
1.0
230
-0.0000000000000002
  0
ARC
  5
1BB6
  8
0
  6
CONTINUOUS
 62
     3
 10
-44.351880065054047
 20
227.9898987322339963
 30
0.0
 40
121.0000000000003979
210
0.0
220
-0.0000000000000002
230
-1.0
 50
315.0000000000002274
 51
359.9999999999997726
  0
ARC
  5
1BB7
  8
0
  6
CONTINUOUS
 62
     3
 10
44.3518800650538907
 20
227.989898732233911
 30
-0.0000000000000506
 40
19.0000000000002416
 50
180.0000000000003979
 51
224.9999999999988063
  0
LINE
  5
1BB8
  8
0
  6
CONTINUOUS
 62
     3
 10
-7.2130910924016858
 20
108.4350288425447957
 30
-0.0000000000000241
 11
-41.2080404585187878
 21
142.4299782086615949
 31
-0.0000000000000316
210
0.0
220
1.0
230
-0.0000000000000002
  0
LINE
  5
1BB9
  8
0
  6
CONTINUOUS
 62
     3
 10
64.91180058862615
 20
180.5599205235726004
 30
-0.0000000000000401
 11
30.9168512225089707
 21
214.5548698896895985
 31
-0.0000000000000476
210
0.0
220
1.0
230
-0.0000000000000002
  0
ARC
  5
1BBA
  8
0
  6
CONTINUOUS
 62
     3
 10
20.6481199349458109
 20
95.0000000000006537
 30
0.0
 40
120.9999999999996021
210
0.0
220
-0.0000000000000002
230
-1.0
 50
134.9999999999998863
 51
180.0000000000001137
  0
ARC
  5
1BBB
  8
0
  6
CONTINUOUS
 62
     3
 10
-20.6481199349458215
 20
95.0000000000006537
 30
-0.0000000000000211
 40
18.9999999999996412
 50
359.9999999999997158
 51
45.0000000000000071
  0
LINE
  5
1BBC
  8
0
  6
CONTINUOUS
 62
     3
 10
30.0586359029784909
 20
315.0000000000001137
 30
-0.0000000000000699
 11
31.0095747409698106
 21
312.9607050809461839
 31
-0.0000000000000695
210
0.0
220
1.0
230
-0.0000000000000002
  0
LINE
  5
1BBD
  8
0
  6
CONTINUOUS
 62
     3
 10
-81.3548757728715657
 20
314.9999999999998863
 30
-0.0000000000000699
 11
-82.3058146108628819
 21
312.9607050809461271
 31
-0.0000000000000695
210
0.0
220
1.0
230
-0.0000000000000002
  0
ARC
  5
1BBE
  8
0
  6
CONTINUOUS
 62
     3
 10
59.6481199349485181
 20
302.395248537429211
 30
0.0
 40
24.9999999999980211
210
0.0
220
-0.0000000000000002
230
-1.0
 50
359.9999999999990905
 51
25.0000000000005507
  0
ARC
  5
1BBF
  8
0
  6
CONTINUOUS
 62
     3
 10
-8.3518800650553118
 20
302.3952485374293246
 30
0.0
 40
24.9999999999981988
210
0.0
220
-0.0000000000000002
230
-1.0
 50
154.9999999999994031
 51
180.0000000000007958
  0
LINE
  5
1BC0
  8
0
  6
CONTINUOUS
 62
     3
 10
33.3518800650534715
 20
302.3952485374289267
 30
-0.0000000000000671
 11
33.3518800650534928
 21
287.2332005306815859
 31
-0.0000000000000638
210
0.0
220
1.0
230
-0.0000000000000002
  0
LINE
  5
1BC1
  8
0
  6
CONTINUOUS
 62
     3
 10
-84.6481199349465356
 20
302.3952485374288131
 30
-0.0000000000000671
 11
-84.6481199349465072
 21
287.2332005306814722
 31
-0.0000000000000638
210
0.0
220
1.0
230
-0.0000000000000002
  0
ARC
  5
1BC2
  8
0
  6
CONTINUOUS
 62
     3
 10
59.6481199349442122
 20
287.2332005306820975
 30
0.0
 40
25.0000000000023803
210
0.0
220
-0.0000000000000002
230
-1.0
 50
333.1119523822770816
 51
359.9999999999985789
  0
ARC
  5
1BC3
  8
0
  6
CONTINUOUS
 62
     3
 10
-8.351880065050846
 20
287.2332005306823248
 30
0.0
 40
25.0000000000026894
210
0.0
220
-0.0000000000000002
230
-1.0
 50
180.0000000000015064
 51
206.888047617722691
  0
ARC
  5
1BC4
  8
0
  6
CONTINUOUS
 62
     3
 10
92.6481199349472178
 20
270.4999999999997726
 30
0.0
 40
12.0000000000007798
210
0.0
220
-0.0000000000000002
230
-1.0
 50
153.1119523822767974
 51
179.9999999999996874
  0
ARC
  5
1BC5
  8
0
  6
CONTINUOUS
 62
     3
 10
-41.3518800650544023
 20
270.5
 30
0.0
 40
12.0000000000007496
210
0.0
220
-0.0000000000000002
230
-1.0
 50
0.0000000000002799
 51
26.8880476177229788
  0
LINE
  5
1BC6
  8
0
  6
CONTINUOUS
 62
     3
 10
29.3518800650536988
 20
270.5
 30
-0.0000000000000601
 11
29.3518800650537202
 21
251.9274888769475069
 31
-0.0000000000000559
210
0.0
220
1.0
230
-0.0000000000000002
  0
LINE
  5
1BC7
  8
0
  6
CONTINUOUS
 62
     3
 10
-80.6481199349465356
 20
270.4999999999998863
 30
-0.0000000000000601
 11
-80.648119934946493
 21
251.9274888769473932
 31
-0.0000000000000559
210
0.0
220
1.0
230
-0.0000000000000002
  0
ARC
  5
1BC8
  8
0
  6
CONTINUOUS
 62
     3
 10
65.6481199349483404
 20
251.9274888769467964
 30
0.0
 40
14.9999999999981402
210
0.0
220
-0.0000000000000002
230
-1.0
 50
325.6988472432080926
 51
0.0000000000024999
  0
ARC
  5
1BC9
  8
0
  6
CONTINUOUS
 62
     3
 10
-14.3518800650553793
 20
251.9274888769469101
 30
0.0
 40
14.9999999999982894
210
0.0
220
-0.0000000000000002
230
-1.0
 50
179.9999999999976978
 51
214.3011527567917938
  0
ARC
  5
1BCA
  8
0
  6
CONTINUOUS
 62
     3
 10
84.6481199349475872
 20
238.9660074801315091
 30
0.0
 40
8.0000000000009663
210
0.0
220
-0.0000000000000002
230
-1.0
 50
145.6988472432084905
 51
179.9999999999978968
  0
ARC
  5
1BCB
  8
0
  6
CONTINUOUS
 62
     3
 10
-33.3518800650547718
 20
238.9660074801315943
 30
0.0
 40
8.0000000000009663
210
0.0
220
-0.0000000000000002
230
-1.0
 50
0.0
 51
34.3011527567894134
  0
LINE
  5
1BCC
  8
0
  6
CONTINUOUS
 62
     3
 10
25.3518800650536988
 20
238.966007480131907
 30
-0.0000000000000531
 11
25.3518800650537202
 21
227.9898987322337121
 31
-0.0000000000000506
210
0.0
220
1.0
230
-0.0000000000000002
  0
LINE
  5
1BCD
  8
0
  6
CONTINUOUS
 62
     3
 10
-76.6481199349465214
 20
238.966007480131708
 30
-0.0000000000000531
 11
-76.6481199349465214
 21
227.9898987322335984
 31
-0.0000000000000506
210
0.0
220
1.0
230
-0.0000000000000002
  0
LINE
  5
1BCE
  8
0
  6
VERDECKT
 62
     1
 10
98.3518800650538338
 20
94.9999999999999147
 30
-0.0000000000000211
 11
98.3518800650538338
 21
12.0873218858173495
 31
-0.0000000000000027
210
0.0
220
1.0
230
-0.0000000000000002
  0
LINE
  5
1BCF
  8
0
  6
VERDECKT
 62
     1
 10
0.3518800650538196
 20
95.0000000000005826
 30
-0.0000000000000211
 11
0.3518800650538196
 21
12.0873218858173495
 31
-0.0000000000000027
210
0.0
220
1.0
230
-0.0000000000000002
  0
LINE
  5
1BD0
  8
0
  6
VERDECKT
 62
     1
 10
1.409383702451579
 20
-0.0000000000000293
 30
0.0
 11
0.351880065053821
 21
12.0873218858173495
 31
-0.0000000000000027
210
0.0
220
1.0
230
-0.0000000000000002
  0
LINE
  5
1BD1
  8
0
  6
VERDECKT
 62
     1
 10
97.2943764276560756
 20
0.0000000000001696
 30
0.0
 11
98.3518800650538338
 21
12.0873218858173495
 31
-0.0000000000000027
210
0.0
220
1.0
230
-0.0000000000000002
  0
ARC
  5
1BD2
  8
0
  6
VERDECKT
 62
     1
 10
-44.3518800650538267
 20
227.9898987322337121
 30
0.0
 40
119.0
210
0.0
220
-0.0000000000000002
230
-1.0
 50
315.0000000000005116
 51
360.0
  0
ARC
  5
1BD3
  8
0
  6
VERDECKT
 62
     1
 10
44.3518800650538196
 20
227.9898987322337121
 30
-0.0000000000000506
 40
21.0
 50
179.9999999999998863
 51
225.0000000000015064
  0
LINE
  5
1BD4
  8
0
  6
VERDECKT
 62
     1
 10
-5.798877530029074
 20
109.849242404918499
 30
-0.0000000000000244
 11
-39.7938268961460722
 21
143.8441917710352982
 31
-0.0000000000000319
210
0.0
220
1.0
230
-0.0000000000000002
  0
LINE
  5
1BD5
  8
0
  6
VERDECKT
 62
     1
 10
63.4975870262537185
 20
179.1457069611990107
 30
-0.0000000000000398
 11
29.5026376601367488
 21
213.1406563273158099
 31
-0.0000000000000473
210
0.0
220
1.0
230
-0.0000000000000002
  0
ARC
  5
1BD6
  8
0
  6
VERDECKT
 62
     1
 10
20.6481199349474203
 20
95.0000000000000284
 30
0.0
 40
119.0000000000011937
210
0.0
220
-0.0000000000000002
230
-1.0
 50
135.0000000000007105
 51
180.0
  0
ARC
  5
1BD7
  8
0
  6
VERDECKT
 62
     1
 10
-20.6481199349472284
 20
95.0000000000001137
 30
-0.0000000000000211
 40
21.0000000000010516
 50
0.0
 51
44.9999999999991971
  0
LINE
  5
1BD8
  8
0
  6
VERDECKT
 62
     1
 10
27.8518800650533684
 20
315.0000000000001137
 30
-0.0000000000000699
 11
28.5244196159748995
 21
313.5577342787324824
 31
-0.0000000000000696
210
0.0
220
1.0
230
-0.0000000000000002
  0
LINE
  5
1BD9
  8
0
  6
VERDECKT
 62
     1
 10
-79.1481199349464362
 20
314.9999999999998863
 30
-0.0000000000000699
 11
-79.8206594858679637
 21
313.5577342787324255
 31
-0.0000000000000696
210
0.0
220
1.0
230
-0.0000000000000002
  0
ARC
  5
1BDA
  8
0
  6
VERDECKT
 62
     1
 10
59.2002905304516105
 20
302.3952485374289836
 30
0.0
 40
23.4478294044949394
210
0.0
220
-0.0000000000000002
230
-1.0
 50
359.9999999999993747
 51
28.4281446728273295
  0
ARC
  5
1BDB
  8
0
  6
VERDECKT
 62
     1
 10
-7.9040506605590179
 20
302.3952485374293246
 30
0.0
 40
23.4478294044944988
210
0.0
220
-0.0000000000000002
230
-1.0
 50
151.5718553271721873
 51
180.0000000000007105
  0
LINE
  5
1BDC
  8
0
  6
VERDECKT
 62
     1
 10
31.3518800650534715
 20
302.3952485374289267
 30
-0.0000000000000671
 11
31.3518800650534892
 21
287.2332005306815859
 31
-0.0000000000000638
210
0.0
220
1.0
230
-0.0000000000000002
  0
LINE
  5
1BDD
  8
0
  6
VERDECKT
 62
     1
 10
-82.6481199349465356
 20
302.3952485374288131
 30
-0.0000000000000671
 11
-82.6481199349465072
 21
287.2332005306814722
 31
-0.0000000000000638
210
0.0
220
1.0
230
-0.0000000000000002
  0
ARC
  5
1BDE
  8
0
  6
VERDECKT
 62
     1
 10
59.6481199349492925
 20
287.2332005306806764
 30
0.0
 40
22.9999999999972502
210
0.0
220
-0.0000000000000002
230
-1.0
 50
333.11195238227441
 51
0.0000000000019847
  0
ARC
  5
1BDF
  8
0
  6
VERDECKT
 62
     1
 10
-8.3518800650563421
 20
287.2332005306807901
 30
0.0
 40
22.9999999999971685
210
0.0
220
-0.0000000000000002
230
-1.0
 50
179.9999999999978115
 51
206.8880476177255048
  0
ARC
  5
1BE0
  8
0
  6
VERDECKT
 62
     1
 10
92.6481199349449724
 20
270.5000000000002842
 30
0.0
 40
13.9999999999985008
210
0.0
220
-0.0000000000000002
230
-1.0
 50
153.1119523822744952
 51
180.0000000000015916
  0
ARC
  5
1BE1
  8
0
  6
VERDECKT
 62
     1
 10
-41.3518800650518301
 20
270.5000000000005116
 30
0.0
 40
13.9999999999981597
210
0.0
220
-0.0000000000000002
230
-1.0
 50
359.9999999999978968
 51
26.8880476177254089
  0
LINE
  5
1BE2
  8
0
  6
VERDECKT
 62
     1
 10
27.3518800650536917
 20
270.5
 30
-0.0000000000000601
 11
27.3518800650537202
 21
251.9274888769475069
 31
-0.0000000000000559
210
0.0
220
1.0
230
-0.0000000000000002
  0
LINE
  5
1BE3
  8
0
  6
VERDECKT
 62
     1
 10
-78.6481199349465356
 20
270.4999999999998863
 30
-0.0000000000000601
 11
-78.6481199349465072
 21
251.9274888769473932
 31
-0.0000000000000559
210
0.0
220
1.0
230
-0.0000000000000002
  0
ARC
  5
1BE4
  8
0
  6
VERDECKT
 62
     1
 10
65.6481199349485109
 20
251.9274888769465974
 30
0.0
 40
12.9999999999979803
210
0.0
220
-0.0000000000000002
230
-1.0
 50
325.6988472432058188
 51
0.000000000003505
  0
ARC
  5
1BE5
  8
0
  6
VERDECKT
 62
     1
 10
-14.35188006505585
 20
251.9274888769467111
 30
0.0
 40
12.9999999999978293
210
0.0
220
-0.0000000000000002
230
-1.0
 50
179.9999999999963052
 51
214.3011527567944086
  0
ARC
  5
1BE6
  8
0
  6
VERDECKT
 62
     1
 10
84.6481199349465641
 20
238.9660074801315091
 30
0.0
 40
10.0000000000000409
210
0.0
220
-0.0000000000000002
230
-1.0
 50
145.6988472432080073
 51
179.9999999999982947
  0
ARC
  5
1BE7
  8
0
  6
VERDECKT
 62
     1
 10
-33.3518800650537912
 20
238.9660074801315943
 30
0.0
 40
10.0000000000000906
210
0.0
220
-0.0000000000000002
230
-1.0
 50
0.0000000000013104
 51
34.3011527567913888
  0
LINE
  5
1BE8
  8
0
  6
VERDECKT
 62
     1
 10
23.3518800650536988
 20
238.966007480131907
 30
-0.0000000000000531
 11
23.3518800650537095
 21
227.9898987322337121
 31
-0.0000000000000506
210
0.0
220
1.0
230
-0.0000000000000002
  0
LINE
  5
1BE9
  8
0
  6
VERDECKT
 62
     1
 10
-74.6481199349465214
 20
238.966007480131708
 30
-0.0000000000000531
 11
-74.6481199349465214
 21
227.9898987322335984
 31
-0.0000000000000506
210
0.0
220
1.0
230
-0.0000000000000002
  0
ENDBLK
  5
1BEB
  8
0
  0
ENDSEC
  0
SECTION
  2
ENTITIES
  0
TEXT
  5
8F
  8
VOLL
 10
78.076754716981128
 20
31.025947764705851
 30
0.0
 40
1.8
  1

  7
GREEKS
  0
TEXT
  5
1523
  8
VOLL
 10
205.7865136357144138
 20
448.9152083009968237
 30
0.0
 40
1.8
  1

  7
GREEKS
  0
INSERT
  5
1BAD
  8
DEFPOINTS
  2
A$C39D1770E
 10
0.0
 20
0.0000000000000142
 30
0.0000000000001596
  0
INSERT
  5
1BEC
  8
DEFPOINTS
  2
A$C33D0236A
 10
0.0
 20
94.6098158696375151
 30
0.0000000000001705
  0
VIEWPORT
  5
19A4
 67
     1
  8
0
 10
4.5116299265119082
 20
5.1409836032439298
 30
0.0
 40
20.086241785198041
 41
10.6691509747636797
 68
     1
 69
     1
1001
ACAD
1000
MVIEW
1002
{
1070
    16
1010
0.0
1020
0.0
1030
0.0
1010
0.0
1020
0.0
1030
1.0
1040
0.0
1040
10.6691509747636797
1040
4.5116299265119082
1040
5.1409836032439298
1040
50.0
1040
0.0
1040
0.0
1070
     0
1070
  1500
1070
     1
1070
     1
1070
     0
1070
     0
1070
     0
1070
     0
1040
0.0
1040
0.0
1040
0.0
1040
10.0
1040
10.0
1040
10.0
1040
10.0
1070
     0
1002
{
1002
}
1002
}
  0
ENDSEC
  0
EOF
