  0
SECTION
  2
HEADER
  9
$ACADVER
  1
AC1009
  9
$INSBASE
 10
0.0
 20
0.0
 30
0.0
  9
$EXTMIN
 10
-113.6383690860011058
 20
-31.5057156177697415
 30
6.988739773850738
  9
$EXTMAX
 10
38.6250124032901567
 20
388.8286134378478778
 30
7.0133823421939487
  9
$LIMMIN
 10
0.0
 20
0.0
  9
$LIMMAX
 10
419.9999999999997726
 20
594.0
  9
$ORTHOMODE
 70
     1
  9
$REGENMODE
 70
     1
  9
$FILLMODE
 70
     1
  9
$QTEXTMODE
 70
     0
  9
$MIRRTEXT
 70
     1
  9
$DRAGMODE
 70
     2
  9
$LTSCALE
 40
20.0
  9
$OSMODE
 70
  1327
  9
$ATTMODE
 70
     1
  9
$TEXTSIZE
 40
3.5
  9
$TRACEWID
 40
0.5
  9
$TEXTSTYLE
  7
STANDARD
  9
$CLAYER
  8
ROHR
  9
$CELTYPE
  6
BYLAYER
  9
$CECOLOR
 62
   256
  9
$DIMSCALE
 40
2.0
  9
$DIMASZ
 40
3.5
  9
$DIMEXO
 40
1.0
  9
$DIMDLI
 40
7.0
  9
$DIMRND
 40
0.0
  9
$DIMDLE
 40
0.0
  9
$DIMEXE
 40
1.0
  9
$DIMTP
 40
0.0
  9
$DIMTM
 40
0.0
  9
$DIMTXT
 40
3.5
  9
$DIMCEN
 40
1.5
  9
$DIMTSZ
 40
0.0
  9
$DIMTOL
 70
     0
  9
$DIMLIM
 70
     0
  9
$DIMTIH
 70
     0
  9
$DIMTOH
 70
     0
  9
$DIMSE1
 70
     0
  9
$DIMSE2
 70
     0
  9
$DIMTAD
 70
     1
  9
$DIMZIN
 70
     8
  9
$DIMBLK
  1

  9
$DIMASO
 70
     1
  9
$DIMSHO
 70
     0
  9
$DIMPOST
  1

  9
$DIMAPOST
  1

  9
$DIMALT
 70
     0
  9
$DIMALTD
 70
     2
  9
$DIMALTF
 40
25.3999999999999986
  9
$DIMLFAC
 40
1.0
  9
$DIMTOFL
 70
     1
  9
$DIMTVP
 40
0.0
  9
$DIMTIX
 70
     0
  9
$DIMSOXD
 70
     0
  9
$DIMSAH
 70
     0
  9
$DIMBLK1
  1

  9
$DIMBLK2
  1

  9
$DIMSTYLE
  2
STANDARD
  9
$DIMCLRD
 70
     0
  9
$DIMCLRE
 70
     0
  9
$DIMCLRT
 70
     1
  9
$DIMTFAC
 40
0.5142857142857143
  9
$DIMGAP
 40
1.5
  9
$LUNITS
 70
     2
  9
$LUPREC
 70
     2
  9
$SKETCHINC
 40
1.0
  9
$FILLETRAD
 40
82.5
  9
$AUNITS
 70
     0
  9
$AUPREC
 70
     0
  9
$MENU
  1
ACAD
  9
$ELEVATION
 40
0.0
  9
$PELEVATION
 40
0.0
  9
$THICKNESS
 40
0.0
  9
$LIMCHECK
 70
     0
  9
$BLIPMODE
 70
     0
  9
$CHAMFERA
 40
0.0
  9
$CHAMFERB
 40
0.0
  9
$SKPOLY
 70
     0
  9
$TDCREATE
 40
2455397.8646990740671754
  9
$TDUPDATE
 40
2458383.5583680560812354
  9
$TDINDWG
 40
0.0872835417
  9
$TDUSRTIMER
 40
0.0872835301
  9
$USRTIMER
 70
     1
  9
$ANGBASE
 50
0.0
  9
$ANGDIR
 70
     0
  9
$PDMODE
 70
     0
  9
$PDSIZE
 40
0.0
  9
$PLINEWID
 40
0.0
  9
$COORDS
 70
     1
  9
$SPLFRAME
 70
     0
  9
$SPLINETYPE
 70
     6
  9
$SPLINESEGS
 70
     8
  9
$ATTDIA
 70
     0
  9
$ATTREQ
 70
     0
  9
$HANDLING
 70
     1
  9
$HANDSEED
  5
E65
  9
$SURFTAB1
 70
     6
  9
$SURFTAB2
 70
     6
  9
$SURFTYPE
 70
     6
  9
$SURFU
 70
     6
  9
$SURFV
 70
     6
  9
$UCSNAME
  2

  9
$UCSORG
 10
0.0
 20
0.0
 30
0.0
  9
$UCSXDIR
 10
1.0
 20
0.0
 30
0.0
  9
$UCSYDIR
 10
0.0
 20
1.0
 30
0.0
  9
$PUCSNAME
  2

  9
$PUCSORG
 10
0.0
 20
0.0
 30
0.0
  9
$PUCSXDIR
 10
1.0
 20
0.0
 30
0.0
  9
$PUCSYDIR
 10
0.0
 20
1.0
 30
0.0
  9
$USERI1
 70
     0
  9
$USERI2
 70
     0
  9
$USERI3
 70
     0
  9
$USERI4
 70
     0
  9
$USERI5
 70
     0
  9
$USERR1
 40
0.0
  9
$USERR2
 40
0.0
  9
$USERR3
 40
0.0
  9
$USERR4
 40
0.0
  9
$USERR5
 40
0.0
  9
$WORLDVIEW
 70
     1
  9
$SHADEDGE
 70
     3
  9
$SHADEDIF
 70
    70
  9
$TILEMODE
 70
     1
  9
$MAXACTVP
 70
    16
  9
$PLIMCHECK
 70
     0
  9
$PEXTMIN
 10
-0.1278078343990714
 20
-0.1457874318256671
 30
-0.0000000000000058
  9
$PEXTMAX
 10
6.9309841210706864
 20
9.4645953234385658
 30
0.0000000000000104
  9
$PLIMMIN
 10
-0.2500002402958907
 20
-0.2499999962453767
  9
$PLIMMAX
 10
10.7499995194082203
 20
8.2499997634587316
  9
$UNITMODE
 70
     0
  9
$VISRETAIN
 70
     0
  9
$PLINEGEN
 70
     0
  9
$PSLTSCALE
 70
     0
  0
ENDSEC
  0
SECTION
  2
TABLES
  0
TABLE
  2
VPORT
 70
     1
  0
VPORT
  2
*ACTIVE
 70
     0
 10
0.0
 20
0.0
 11
1.0
 21
1.0
 12
2.493321658644561
 22
19.6614489100390699
 13
0.0
 23
0.0
 14
1.0
 24
1.0
 15
10.0
 25
10.0
 16
-0.0000000000002984
 26
0.0
 36
1336.988799026596098
 17
-40.0000000000001066
 27
159.0
 37
161.4999999999998863
 40
423.4789749089014776
 41
1.8826466916354549
 42
50.0
 43
0.0
 44
0.0
 50
0.0
 51
0.0
 71
     0
 72
  1500
 73
     1
 74
     0
 75
     0
 76
     0
 77
     0
 78
     0
  0
ENDTAB
  0
TABLE
  2
LTYPE
 70
     3
  0
LTYPE
  2
CONTINUOUS
 70
     0
  3
Solid line
 72
    65
 73
     0
 40
0.0
  0
LTYPE
  2
VERDECKT
 70
     0
  3
Verdeckt __ __ __ __ __ __ __ __ __ __ __ __ __
 72
    65
 73
     2
 40
0.375
 49
0.25
 49
-0.125
  0
ENDTAB
  0
TABLE
  2
LAYER
 70
    10
  0
LAYER
  2
0
 70
     0
 62
     7
  6
CONTINUOUS
  0
LAYER
  2
VOLL
 70
     0
 62
     1
  6
CONTINUOUS
  0
LAYER
  2
DEFPOINTS
 70
     0
 62
     7
  6
CONTINUOUS
  0
LAYER
  2
ROHR
 70
     0
 62
     9
  6
CONTINUOUS
  0
ENDTAB
  0
TABLE
  2
STYLE
 70
     5
  0
STYLE
  2
STANDARD
 70
     0
 40
0.0
 41
0.8
 50
0.0
 71
     0
 42
3.5
  3
simplex.shx
  4

  0
STYLE
  2
GREEKS
 70
     0
 40
0.0
 41
0.8
 50
0.0
 71
     0
 42
2.5
  3
SIMPLEX.shx
  4

  0
ENDTAB
  0
TABLE
  2
VIEW
 70
     3
  0
ENDTAB
  0
TABLE
  2
UCS
 70
     0
  0
ENDTAB
  0
TABLE
  2
APPID
 70
     8
  0
APPID
  2
ACAD
 70
     0
  0
APPID
  2
ACAD_NAV_VCDISPLAY
 70
     0
  0
APPID
  2
ACAECLAYERSTANDARD
 70
     0
  0
APPID
  2
ACCMTRANSPARENCY
 70
     0
  0
APPID
  2
ACAD_PSEXT
 70
     0
  0
APPID
  2
ACAD_MLEADERVER
 70
     0
  0
APPID
  2
ACAD_OBJECT_CHANGE_GUID
 70
     0
  0
APPID
  2
ACAD_EXEMPT_FROM_CAD_STANDARDS
 70
     0
  0
ENDTAB
  0
TABLE
  2
DIMSTYLE
 70
     3
  0
DIMSTYLE
  2
STANDARD
 70
     0
  3

  4

  5

  6

  7

 40
1.0
 41
0.18
 42
0.0625
 43
0.38
 44
0.18
 45
0.0
 46
0.0
 47
0.0
 48
0.0
140
0.18
141
0.09
142
0.0
143
25.3999999999999986
144
1.0
145
0.0
146
1.0
147
0.09
 71
     0
 72
     0
 73
     1
 74
     1
 75
     0
 76
     0
 77
     0
 78
     0
170
     0
171
     2
172
     0
173
     0
174
     0
175
     0
176
     0
177
     0
178
     0
  0
ENDTAB
  0
ENDSEC
  0
SECTION
  2
BLOCKS
  0
BLOCK
  8
0
  2
$MODEL_SPACE
 70
     0
 10
0.0
 20
0.0
 30
0.0
  3
$MODEL_SPACE
  1

  0
ENDBLK
  5
36
  8
0
  0
BLOCK
 67
     1
  8
0
  2
$PAPER_SPACE
 70
     0
 10
0.0
 20
0.0
 30
0.0
  3
$PAPER_SPACE
  1

  0
ENDBLK
  5
34
 67
     1
  8
0
  0
BLOCK
  8
0
  2
A$C79154D24
 70
     0
 10
0.0
 20
0.0
 30
0.0
  3
A$C79154D24
  1

  0
CIRCLE
  5
DBB
  8
0
  6
CONTINUOUS
 62
     3
 10
-75.0000000000001563
 20
0.000000000000035
 30
0.0
 40
31.5
  0
CIRCLE
  5
DBC
  8
0
  6
CONTINUOUS
 62
     3
 10
-75.0000000000001563
 20
0.0000000000000355
 30
0.0
 40
29.6070448491912011
  0
CIRCLE
  5
DBD
  8
0
  6
CONTINUOUS
 62
     3
 10
-75.0000000000001563
 20
0.0000000000000355
 30
0.0
 40
27.9290197827828912
  0
CIRCLE
  5
DBE
  8
0
  6
CONTINUOUS
 62
     3
 10
-75.0000000000001705
 20
0.0000000000000329
 30
0.0
 40
24.9999999999998899
  0
ARC
  5
DBF
  8
0
  6
CONTINUOUS
 62
     3
 10
-0.0000000000002117
 20
0.00000000000002
 30
0.0
 40
26.5
 50
270.0
 51
90.0
  0
LINE
  5
DC0
  8
0
  6
CONTINUOUS
 62
     3
 10
-10.5152113796516193
 20
-26.4999999999999787
 30
0.0
 11
-57.9706136340737928
 21
-26.4999999999999787
 31
-0.0000000000000142
  0
LINE
  5
DC1
  8
0
  6
CONTINUOUS
 62
     3
 10
-10.5152113796516193
 20
26.5000000000000213
 30
0.0
 11
-57.9706136340737572
 21
26.5000000000000284
 31
-0.0000000000000142
  0
LINE
  5
DC2
  8
0
  6
CONTINUOUS
 62
     3
 10
-10.5152113796515199
 20
-26.4999999999999787
 30
0.0
 11
-0.0000000000002114
 21
-26.4999999999999787
 31
0.0
  0
LINE
  5
DC3
  8
0
  6
CONTINUOUS
 62
     3
 10
-0.0000000000002259
 20
26.5000000000000213
 30
0.0
 11
-10.5152113796515305
 21
26.5000000000000284
 31
0.0
  0
CIRCLE
  5
DC4
  8
0
  6
VERDECKT
 62
     1
 10
-75.0000000000001705
 20
0.0000000000000329
 30
0.0
 40
26.5
  0
CIRCLE
  5
DC5
  8
0
  6
VERDECKT
 62
     1
 10
-75.0000000000001563
 20
0.000000000000034
 30
0.0
 40
29.5
  0
CIRCLE
  5
DC6
  8
0
  6
VERDECKT
 62
     1
 10
-75.0000000000001563
 20
0.000000000000034
 30
0.0
 40
27.9999999999992113
  0
CIRCLE
  5
DC7
  8
0
  6
VERDECKT
 62
     1
 10
-75.0000000000001563
 20
0.0000000000000347
 30
0.0
 40
30.0000019234252093
  0
CIRCLE
  5
DC8
  8
0
  6
VERDECKT
 62
     1
 10
-75.0000000000001563
 20
0.000000000000035
 30
0.0
 40
29.9999999999982911
  0
CIRCLE
  5
DC9
  8
0
  6
VERDECKT
 62
     1
 10
-0.0000000000002274
 20
0.0000000000000157
 30
0.0
 40
24.3818495990032602
  0
CIRCLE
  5
DCA
  8
0
  6
VERDECKT
 62
     1
 10
0.0
 20
0.0000000000000157
 30
0.0
 40
25.8875793553183797
  0
ARC
  5
DCB
  8
0
  6
VERDECKT
 62
     1
 10
-0.0000000000002117
 20
0.0000000000000484
 30
0.0
 40
26.5
 50
180.0
 51
270.0
  0
ARC
  5
DCC
  8
0
  6
VERDECKT
 62
     1
 10
-0.0000000000002117
 20
-0.0000000000000084
 30
0.0
 40
26.5000000000000284
 50
90.0
 51
179.9999999999998863
  0
CIRCLE
  5
DCD
  8
0
  6
VERDECKT
 62
     1
 10
-0.0000000000002117
 20
0.00000000000002
 30
0.0
 40
25.0
  0
CIRCLE
  5
DCE
  8
0
  6
VERDECKT
 62
     1
 10
-75.0000000000001563
 20
0.0000000000000347
 30
0.0
 40
30.0000320571281804
  0
LINE
  5
DCF
  8
0
  6
VERDECKT
 62
     1
 10
-64.4847886203485245
 20
25.0000000000000284
 30
-0.0000000000000284
 11
-75.0000000000003411
 21
25.0000000000000284
 31
-0.0000000000000284
  0
LINE
  5
DD0
  8
0
  6
VERDECKT
 62
     1
 10
-75.0000000000003411
 20
-24.9999999999999716
 30
-0.0000000000000284
 11
-64.4847886203485672
 21
-24.9999999999999716
 31
-0.0000000000000284
  0
LINE
  5
DD1
  8
0
  6
VERDECKT
 62
     1
 10
-10.5152113796518503
 20
-24.9999999999999787
 30
0.0
 11
-64.484788620348553
 21
-24.9999999999999787
 31
-0.0000000000000142
  0
LINE
  5
DD2
  8
0
  6
VERDECKT
 62
     1
 10
-10.5152113796518396
 20
25.0000000000000284
 30
0.0
 11
-64.4847886203485245
 21
25.0000000000000284
 31
-0.0000000000000142
  0
LINE
  5
DD3
  8
0
  6
VERDECKT
 62
     1
 10
-10.5152113796515891
 20
-24.9999999999999787
 30
0.0
 11
-0.0000000000002114
 21
-24.9999999999999787
 31
0.0
  0
LINE
  5
DD4
  8
0
  6
VERDECKT
 62
     1
 10
-0.0000000000002259
 20
25.0000000000000213
 30
0.0
 11
-10.5152113796516105
 21
25.0000000000000284
 31
0.0
  0
LINE
  5
DD5
  8
0
  6
VERDECKT
 62
     1
 10
-64.484788620348084
 20
26.5000000000000284
 30
-0.0000000000000284
 11
-74.9999999999998721
 21
26.5000000000000284
 31
-0.0000000000000284
  0
LINE
  5
DD6
  8
0
  6
VERDECKT
 62
     1
 10
-74.9999999999998437
 20
-26.4999999999999716
 30
-0.0000000000000284
 11
-64.4847886203480982
 21
-26.4999999999999716
 31
-0.0000000000000284
  0
LINE
  5
DD7
  8
0
  6
VERDECKT
 62
     1
 10
-57.9706136340737928
 20
-26.4999999999999787
 30
0.0
 11
-64.4847886203483256
 21
-26.4999999999999716
 31
-0.0000000000000018
  0
LINE
  5
DD8
  8
0
  6
VERDECKT
 62
     1
 10
-57.9706136340737714
 20
26.5000000000000284
 30
0.0
 11
-64.4847886203483114
 21
26.5000000000000284
 31
-0.0000000000000018
  0
ENDBLK
  5
DDA
  8
0
  0
BLOCK
  8
0
  2
A$C1CC7589D
 70
     0
 10
0.0
 20
0.0
 30
0.0
  3
A$C1CC7589D
  1

  0
LINE
  5
DDE
  8
0
  6
CONTINUOUS
 62
     3
 10
-104.6070448491913965
 20
322.9999999999998863
 30
-0.0000000000000717
 11
-45.3929551508090299
 21
322.9999999999998863
 31
-0.0000000000000717
210
0.0
220
1.0
230
-0.0000000000000002
  0
LINE
  5
DDF
  8
0
  6
CONTINUOUS
 62
     3
 10
-25.887579355318401
 20
-0.0000000000000568
 30
0.0
 11
25.887579355318401
 21
0.0000000000000568
 31
0.0
210
0.0
220
1.0
230
-0.0000000000000002
  0
LINE
  5
DE0
  8
0
  6
CONTINUOUS
 62
     3
 10
-48.5000000000002203
 20
279.8726731603430267
 30
-0.0000000000000621
 11
-48.5000000000002203
 21
246.9999999999994031
 31
-0.0000000000000548
210
0.0
220
1.0
230
-0.0000000000000002
  0
LINE
  5
DE1
  8
0
  6
CONTINUOUS
 62
     3
 10
-101.500000000000199
 20
279.8726731603430267
 30
-0.0000000000000621
 11
-101.500000000000199
 21
246.9999999999998863
 31
-0.0000000000000548
210
0.0
220
1.0
230
-0.0000000000000002
  0
ARC
  5
DE2
  8
0
  6
CONTINUOUS
 62
     3
 10
109.5000000000016058
 20
279.8726731603425719
 30
0.0
 40
8.0000000000014087
210
0.0
220
-0.0000000000000002
230
-1.0
 50
148.2116693829526923
 51
179.999999999997101
  0
ARC
  5
DE3
  8
0
  6
CONTINUOUS
 62
     3
 10
40.4999999999984723
 20
279.8726731603425719
 30
0.0
 40
8.000000000001755
210
0.0
220
-0.0000000000000002
230
-1.0
 50
0.0000000000032569
 51
31.7883306170468209
  0
ARC
  5
DE4
  8
0
  6
CONTINUOUS
 62
     3
 10
92.4999999999977405
 20
290.4083269131965039
 30
0.0
 40
12.0000000000024691
210
0.0
220
-0.0000000000000002
230
-1.0
 50
328.2116693829506175
 51
359.9999999999968168
  0
ARC
  5
DE5
  8
0
  6
CONTINUOUS
 62
     3
 10
57.5000000000024585
 20
290.4083269131963903
 30
0.0
 40
12.0000000000022204
210
0.0
220
-0.0000000000000002
230
-1.0
 50
180.0000000000025864
 51
211.7883306170492119
  0
LINE
  5
DE6
  8
0
  6
CONTINUOUS
 62
     3
 10
-45.5000000000002203
 20
298.4999999999998863
 30
-0.0000000000000663
 11
-45.5000000000002203
 21
290.4083269131958218
 31
-0.0000000000000645
210
0.0
220
1.0
230
-0.0000000000000002
  0
LINE
  5
DE7
  8
0
  6
CONTINUOUS
 62
     3
 10
-104.500000000000199
 20
298.4999999999998863
 30
-0.0000000000000663
 11
-104.500000000000199
 21
290.4083269131958218
 31
-0.0000000000000645
210
0.0
220
1.0
230
-0.0000000000000002
  0
ARC
  5
DE8
  8
0
  6
CONTINUOUS
 62
     3
 10
114.4999999999987068
 20
298.5000000000001137
 30
0.0
 40
9.9999999999984563
210
0.0
220
-0.0000000000000002
230
-1.0
 50
160.536900555306886
 51
180.0000000000009095
  0
ARC
  5
DE9
  8
0
  6
CONTINUOUS
 62
     3
 10
35.5000000000019469
 20
298.5000000000001137
 30
0.0
 40
9.9999999999982805
210
0.0
220
-0.0000000000000002
230
-1.0
 50
359.9999999999989768
 51
19.4630994446937606
  0
ARC
  5
DEA
  8
0
  6
CONTINUOUS
 62
     3
 10
81.5000000000113971
 20
310.1619999999978745
 30
0.0
 40
25.0000320571170107
210
0.0
220
-0.0000000000000002
230
-1.0
 50
340.5369005553079091
 51
359.9082450082264018
  0
ARC
  5
DEB
  8
0
  6
CONTINUOUS
 62
     3
 10
68.499999999989214
 20
310.1619999999978745
 30
0.0
 40
25.0000320571171706
210
0.0
220
-0.0000000000000002
230
-1.0
 50
180.0917549917735982
 51
199.4630994446918066
  0
LINE
  5
DEC
  8
0
  6
CONTINUOUS
 62
     3
 10
-43.5000000000002203
 20
314.6174986573391266
 30
-0.0000000000000699
 11
-43.5000000000002203
 21
310.1219642979834248
 31
-0.0000000000000689
210
0.0
220
1.0
230
-0.0000000000000002
  0
LINE
  5
DED
  8
0
  6
CONTINUOUS
 62
     3
 10
-106.500000000000199
 20
314.6174986573391266
 30
-0.0000000000000699
 11
-106.500000000000199
 21
310.1219642979834248
 31
-0.0000000000000689
210
0.0
220
1.0
230
-0.0000000000000002
  0
ARC
  5
DEE
  8
0
  6
CONTINUOUS
 62
     3
 10
86.993566387157216
 20
314.6174986573392971
 30
0.0
 40
19.5064336128430114
210
0.0
220
-0.0000000000000002
230
-1.0
 50
359.9999999999996021
 51
25.4504317769804516
  0
ARC
  5
DEF
  8
0
  6
CONTINUOUS
 62
     3
 10
63.0064336128433595
 20
314.6174986573391834
 30
0.0
 40
19.5064336128431393
210
0.0
220
-0.0000000000000002
230
-1.0
 50
154.5495682230196905
 51
180.0000000000001137
  0
LINE
  5
DF0
  8
0
  6
CONTINUOUS
 62
     3
 10
-25.8875793553183904
 20
-0.0000000000001128
 30
0.0
 11
-26.5
 21
6.9999999999998881
 31
-0.0000000000000016
210
0.0
220
1.0
230
-0.0000000000000002
  0
LINE
  5
DF1
  8
0
  6
CONTINUOUS
 62
     3
 10
25.8875793553184117
 20
0.0000000000000773
 30
0.0
 11
26.4999999999999787
 21
7.000000000000079
 31
-0.0000000000000016
210
0.0
220
1.0
230
-0.0000000000000002
  0
LINE
  5
DF2
  8
0
  6
CONTINUOUS
 62
     3
 10
26.4999999999996803
 20
69.9999999999994316
 30
-0.0000000000000155
 11
26.4999999999998685
 21
7.000000000000087
 31
-0.0000000000000016
210
0.0
220
1.0
230
-0.0000000000000002
  0
LINE
  5
DF3
  8
0
  6
CONTINUOUS
 62
     3
 10
-26.5000000000003197
 20
69.9999999999999005
 30
-0.0000000000000155
 11
-26.5000000000001315
 21
6.9999999999998881
 31
-0.0000000000000016
210
0.0
220
1.0
230
-0.0000000000000002
  0
ARC
  5
DF4
  8
0
  6
CONTINUOUS
 62
     3
 10
-7.4999999999992184
 20
246.9999999999992895
 30
0.0
 40
108.9999999999991047
210
0.0
220
-0.0000000000000002
230
-1.0
 50
330.7554982458386803
 51
0.0000000000003053
  0
ARC
  5
DF5
  8
0
  6
CONTINUOUS
 62
     3
 10
7.499999999999388
 20
246.9999999999992895
 30
-0.0000000000000548
 40
55.9999999999992966
 50
179.9999999999998863
 51
209.244501754161405
  0
LINE
  5
DF6
  8
0
  6
CONTINUOUS
 62
     3
 10
-33.6375980273999318
 20
97.3581006918979881
 30
-0.0000000000000216
 11
-87.6071752680966256
 21
193.7494111532685963
 31
-0.000000000000043
210
0.0
220
1.0
230
-0.0000000000000002
  0
LINE
  5
DF7
  8
0
  6
CONTINUOUS
 62
     3
 10
12.6071752680966096
 20
123.2505888467302952
 30
-0.0000000000000274
 11
-41.3624019726000967
 21
219.6418993081007898
 31
-0.0000000000000488
210
0.0
220
1.0
230
-0.0000000000000002
  0
ARC
  5
DF8
  8
0
  6
CONTINUOUS
 62
     3
 10
82.4999999999986073
 20
70.0000000000006253
 30
0.0
 40
108.9999999999983942
210
0.0
220
-0.0000000000000002
230
-1.0
 50
150.7554982458391066
 51
180.0000000000005969
  0
ARC
  5
DF9
  8
0
  6
CONTINUOUS
 62
     3
 10
-82.4999999999985647
 20
70.0000000000006679
 30
-0.0000000000000155
 40
55.9999999999983089
 50
359.9999999999992042
 51
29.2445017541608401
  0
LINE
  5
DFA
  8
0
  6
VERDECKT
 62
     1
 10
-50.0000000000002274
 20
279.8726731603430267
 30
-0.0000000000000621
 11
-50.0000000000002274
 21
247.0
 31
-0.0000000000000548
210
0.0
220
1.0
230
-0.0000000000000002
  0
LINE
  5
DFB
  8
0
  6
VERDECKT
 62
     1
 10
-100.000000000000199
 20
279.8726731603430267
 30
-0.0000000000000621
 11
-100.000000000000199
 21
247.0000000000001137
 31
-0.0000000000000548
210
0.0
220
1.0
230
-0.0000000000000002
  0
ARC
  5
DFC
  8
0
  6
VERDECKT
 62
     1
 10
109.4999999999991047
 20
279.8726731603430835
 30
0.0
 40
9.4999999999990283
210
0.0
220
-0.0000000000000002
230
-1.0
 50
148.211669382946809
 51
180.0000000000003126
  0
ARC
  5
DFD
  8
0
  6
VERDECKT
 62
     1
 10
40.5000000000011866
 20
279.8726731603430267
 30
0.0
 40
9.4999999999991473
210
0.0
220
-0.0000000000000002
230
-1.0
 50
0.0
 51
31.7883306170539299
  0
ARC
  5
DFE
  8
0
  6
VERDECKT
 62
     1
 10
92.5000000000031406
 20
290.4083269131949123
 30
0.0
 40
10.4999999999970903
210
0.0
220
-0.0000000000000002
230
-1.0
 50
328.2116693829427732
 51
0.000000000005267
  0
ARC
  5
DFF
  8
0
  6
VERDECKT
 62
     1
 10
57.4999999999975415
 20
290.4083269131949123
 30
0.0
 40
10.4999999999973106
210
0.0
220
-0.0000000000000002
230
-1.0
 50
179.9999999999949978
 51
211.7883306170560047
  0
LINE
  5
E00
  8
0
  6
VERDECKT
 62
     1
 10
-47.0000000000006821
 20
298.49999999999892
 30
-0.0000000000000663
 11
-47.0000000000006821
 21
290.4083269131958218
 31
-0.0000000000000645
210
0.0
220
1.0
230
-0.0000000000000002
  0
LINE
  5
E01
  8
0
  6
VERDECKT
 62
     1
 10
-102.999999999999801
 20
298.49999999999892
 30
-0.0000000000000663
 11
-102.999999999999801
 21
290.4083269131958218
 31
-0.0000000000000645
210
0.0
220
1.0
230
-0.0000000000000002
  0
ARC
  5
E02
  8
0
  6
VERDECKT
 62
     1
 10
114.4999999999878071
 20
298.4999999999997158
 30
0.0
 40
11.4999999999884306
210
0.0
220
-0.0000000000000002
230
-1.0
 50
160.536900555290913
 51
180.0000000000038938
  0
ARC
  5
E03
  8
0
  6
VERDECKT
 62
     1
 10
35.5000000000125766
 20
298.4999999999997158
 30
0.0
 40
11.4999999999884395
210
0.0
220
-0.0000000000000002
230
-1.0
 50
359.999999999996021
 51
19.4630994447090586
  0
ARC
  5
E04
  8
0
  6
VERDECKT
 62
     1
 10
81.5000000000507328
 20
310.1619999999912807
 30
0.0
 40
23.5000320570776786
210
0.0
220
-0.0000000000000002
230
-1.0
 50
340.5369005552893213
 51
0.09175499183058
  0
ARC
  5
E05
  8
0
  6
VERDECKT
 62
     1
 10
68.4999999999502052
 20
310.1619999999913944
 30
0.0
 40
23.5000320570781582
210
0.0
220
-0.0000000000000002
230
-1.0
 50
179.9082450081695015
 51
199.4630994447103944
  0
LINE
  5
E06
  8
0
  6
VERDECKT
 62
     1
 10
-44.9999990382884789
 20
314.6175064940707102
 30
-0.0000000000000699
 11
-44.9999990382884789
 21
310.1996335629884811
 31
-0.0000000000000689
210
0.0
220
1.0
230
-0.0000000000000002
  0
LINE
  5
E07
  8
0
  6
VERDECKT
 62
     1
 10
-105.0000009617120043
 20
314.6175064940707102
 30
-0.0000000000000699
 11
-105.0000009617120043
 21
310.1996335629884811
 31
-0.0000000000000689
210
0.0
220
1.0
230
-0.0000000000000002
  0
ARC
  5
E08
  8
0
  6
VERDECKT
 62
     1
 10
87.0000000000000853
 20
314.6174986573391266
 30
0.0
 40
18.0000000000001492
210
0.0
220
-0.0000000000000002
230
-1.0
 50
0.0000249450915626
 51
27.7551793916149805
  0
ARC
  5
E09
  8
0
  6
VERDECKT
 62
     1
 10
63.0000000000004619
 20
314.6174986573390129
 30
0.0
 40
18.0000000000002309
210
0.0
220
-0.0000000000000002
230
-1.0
 50
152.2448206083851971
 51
179.9999750549081909
  0
LINE
  5
E0A
  8
0
  6
VERDECKT
 62
     1
 10
-24.3818495990034911
 20
-0.0000000000001288
 30
0.0
 11
-25.0000000000000497
 21
7.0654914143610528
 31
-0.0000000000000016
210
0.0
220
1.0
230
-0.0000000000000002
  0
LINE
  5
E0B
  8
0
  6
VERDECKT
 62
     1
 10
24.3818495990030506
 20
-0.0000000000000395
 30
0.0
 11
24.9999999999995914
 21
7.06549141436117
 31
-0.0000000000000016
210
0.0
220
1.0
230
-0.0000000000000002
  0
LINE
  5
E0C
  8
0
  6
VERDECKT
 62
     1
 10
24.9999999999993783
 20
69.9999999999996732
 30
-0.0000000000000155
 11
24.9999999999994813
 21
7.065491414361178
 31
-0.0000000000000016
210
0.0
220
1.0
230
-0.0000000000000002
  0
LINE
  5
E0D
  8
0
  6
VERDECKT
 62
     1
 10
-24.9999999999999396
 20
69.9999999999999005
 30
-0.0000000000000155
 11
-24.9999999999998401
 21
7.0654914143610776
 31
-0.0000000000000016
210
0.0
220
1.0
230
-0.0000000000000002
  0
ARC
  5
E0E
  8
0
  6
VERDECKT
 62
     1
 10
-7.499999999999388
 20
246.9999999999994031
 30
0.0
 40
107.499999999999801
210
0.0
220
-0.0000000000000002
230
-1.0
 50
330.7554982458386803
 51
0.0000000000003689
  0
ARC
  5
E0F
  8
0
  6
VERDECKT
 62
     1
 10
7.4999999999997859
 20
246.9999999999994884
 30
-0.0000000000000548
 40
57.5000000000001776
 50
179.9999999999994031
 51
209.244501754161206
  0
LINE
  5
E10
  8
0
  6
VERDECKT
 62
     1
 10
-32.3287836888483113
 20
98.090906960430857
 30
-0.0000000000000218
 11
-86.2983609295450265
 21
194.4822174218014084
 31
-0.0000000000000432
210
0.0
220
1.0
230
-0.0000000000000002
  0
LINE
  5
E11
  8
0
  6
VERDECKT
 62
     1
 10
11.2983609295445895
 20
122.517782578197199
 30
-0.0000000000000272
 11
-42.6712163111521079
 21
218.9090930395678072
 31
-0.0000000000000486
210
0.0
220
1.0
230
-0.0000000000000002
  0
ARC
  5
E12
  8
0
  6
VERDECKT
 62
     1
 10
82.4999999999988205
 20
70.0000000000005826
 30
0.0
 40
107.4999999999985931
210
0.0
220
-0.0000000000000002
230
-1.0
 50
150.7554982458389929
 51
180.0000000000003979
  0
ARC
  5
E13
  8
0
  6
VERDECKT
 62
     1
 10
-82.4999999999987068
 20
70.0000000000006111
 30
-0.0000000000000155
 40
57.4999999999984723
 50
359.9999999999992042
 51
29.2445017541607584
  0
ENDBLK
  5
E15
  8
0
  0
ENDSEC
  0
SECTION
  2
ENTITIES
  0
TEXT
  5
8F
  8
VOLL
 10
78.076754716981128
 20
31.025947764705851
 30
0.0
 40
1.8
  1

  7
GREEKS
  0
INSERT
  5
DDB
  8
ROHR
  2
A$C79154D24
 10
0.0
 20
0.0000000000000162
 30
7.0
  0
INSERT
  5
E16
  8
ROHR
  2
A$C1CC7589D
 10
-0.0000000000002259
 20
65.8148503865059382
 30
7.0
  0
VIEWPORT
  5
B99
 67
     1
  8
0
 10
4.1299310816294268
 20
4.6593017789527078
 30
0.0
 40
18.2217816469991583
 41
9.6788110737707722
 68
     1
 69
     1
1001
ACAD
1000
MVIEW
1002
{
1070
    16
1010
0.0
1020
0.0
1030
0.0
1010
0.0
1020
0.0
1030
1.0
1040
0.0
1040
9.6788110737707722
1040
4.1299310816294268
1040
4.6593017789527078
1040
50.0
1040
0.0
1040
0.0
1070
     0
1070
  1500
1070
     1
1070
     1
1070
     0
1070
     0
1070
     0
1070
     0
1040
0.0
1040
0.0
1040
0.0
1040
10.0
1040
10.0
1040
10.0
1040
10.0
1070
     0
1002
{
1002
}
1002
}
  0
ENDSEC
  0
EOF
