  0
SECTION
  2
HEADER
  9
$ACADVER
  1
AC1009
  9
$INSBASE
 10
0.0
 20
0.0
 30
0.0
  9
$EXTMIN
 10
-227.9648863608479132
 20
-76.0023776133198226
 30
-0.0118596091170957
  9
$EXTMAX
 10
97.9553813318918856
 20
510.5370473287886739
 30
0.017791223446352
  9
$LIMMIN
 10
0.0
 20
0.0
  9
$LIMMAX
 10
419.9999999999998863
 20
594.0
  9
$ORTHOMODE
 70
     1
  9
$REGENMODE
 70
     1
  9
$FILLMODE
 70
     1
  9
$QTEXTMODE
 70
     0
  9
$MIRRTEXT
 70
     1
  9
$DRAGMODE
 70
     2
  9
$LTSCALE
 40
20.0
  9
$OSMODE
 70
  1327
  9
$ATTMODE
 70
     1
  9
$TEXTSIZE
 40
3.5
  9
$TRACEWID
 40
0.5
  9
$TEXTSTYLE
  7
STANDARD
  9
$CLAYER
  8
0
  9
$CELTYPE
  6
BYLAYER
  9
$CECOLOR
 62
   256
  9
$DIMSCALE
 40
2.0
  9
$DIMASZ
 40
3.5
  9
$DIMEXO
 40
1.0
  9
$DIMDLI
 40
7.0
  9
$DIMRND
 40
0.0
  9
$DIMDLE
 40
0.0
  9
$DIMEXE
 40
1.0
  9
$DIMTP
 40
0.0
  9
$DIMTM
 40
0.0
  9
$DIMTXT
 40
3.5
  9
$DIMCEN
 40
1.5
  9
$DIMTSZ
 40
0.0
  9
$DIMTOL
 70
     0
  9
$DIMLIM
 70
     0
  9
$DIMTIH
 70
     0
  9
$DIMTOH
 70
     0
  9
$DIMSE1
 70
     0
  9
$DIMSE2
 70
     0
  9
$DIMTAD
 70
     1
  9
$DIMZIN
 70
     8
  9
$DIMBLK
  1

  9
$DIMASO
 70
     1
  9
$DIMSHO
 70
     0
  9
$DIMPOST
  1

  9
$DIMAPOST
  1

  9
$DIMALT
 70
     0
  9
$DIMALTD
 70
     2
  9
$DIMALTF
 40
25.3999999999999986
  9
$DIMLFAC
 40
1.0
  9
$DIMTOFL
 70
     1
  9
$DIMTVP
 40
0.0
  9
$DIMTIX
 70
     0
  9
$DIMSOXD
 70
     0
  9
$DIMSAH
 70
     0
  9
$DIMBLK1
  1

  9
$DIMBLK2
  1

  9
$DIMSTYLE
  2
STANDARD
  9
$DIMCLRD
 70
     0
  9
$DIMCLRE
 70
     0
  9
$DIMCLRT
 70
     1
  9
$DIMTFAC
 40
0.5142857142857143
  9
$DIMGAP
 40
1.5
  9
$LUNITS
 70
     2
  9
$LUPREC
 70
     2
  9
$SKETCHINC
 40
1.0
  9
$FILLETRAD
 40
82.5
  9
$AUNITS
 70
     0
  9
$AUPREC
 70
     0
  9
$MENU
  1
ACAD
  9
$ELEVATION
 40
0.0
  9
$PELEVATION
 40
0.0
  9
$THICKNESS
 40
0.0
  9
$LIMCHECK
 70
     0
  9
$BLIPMODE
 70
     0
  9
$CHAMFERA
 40
0.0
  9
$CHAMFERB
 40
0.0
  9
$SKPOLY
 70
     0
  9
$TDCREATE
 40
2455397.8646990740671754
  9
$TDUPDATE
 40
2458383.3399884258396924
  9
$TDINDWG
 40
0.1058869792
  9
$TDUSRTIMER
 40
0.1058869792
  9
$USRTIMER
 70
     1
  9
$ANGBASE
 50
0.0
  9
$ANGDIR
 70
     0
  9
$PDMODE
 70
     0
  9
$PDSIZE
 40
0.0
  9
$PLINEWID
 40
0.0
  9
$COORDS
 70
     1
  9
$SPLFRAME
 70
     0
  9
$SPLINETYPE
 70
     6
  9
$SPLINESEGS
 70
     8
  9
$ATTDIA
 70
     0
  9
$ATTREQ
 70
     0
  9
$HANDLING
 70
     1
  9
$HANDSEED
  5
1A61
  9
$SURFTAB1
 70
     6
  9
$SURFTAB2
 70
     6
  9
$SURFTYPE
 70
     6
  9
$SURFU
 70
     6
  9
$SURFV
 70
     6
  9
$UCSNAME
  2

  9
$UCSORG
 10
0.0
 20
0.0
 30
0.0
  9
$UCSXDIR
 10
1.0
 20
0.0
 30
0.0
  9
$UCSYDIR
 10
0.0
 20
1.0
 30
0.0
  9
$PUCSNAME
  2

  9
$PUCSORG
 10
0.0
 20
0.0
 30
0.0
  9
$PUCSXDIR
 10
1.0
 20
0.0
 30
0.0
  9
$PUCSYDIR
 10
0.0
 20
1.0
 30
0.0
  9
$USERI1
 70
     0
  9
$USERI2
 70
     0
  9
$USERI3
 70
     0
  9
$USERI4
 70
     0
  9
$USERI5
 70
     0
  9
$USERR1
 40
0.0
  9
$USERR2
 40
0.0
  9
$USERR3
 40
0.0
  9
$USERR4
 40
0.0
  9
$USERR5
 40
0.0
  9
$WORLDVIEW
 70
     1
  9
$SHADEDGE
 70
     3
  9
$SHADEDIF
 70
    70
  9
$TILEMODE
 70
     1
  9
$MAXACTVP
 70
    16
  9
$PLIMCHECK
 70
     0
  9
$PEXTMIN
 10
-0.1588594694990846
 20
-0.2191314470180572
 30
-0.0000000000112498
  9
$PEXTMAX
 10
5.3028713617728149
 20
7.2729719166661999
 30
0.0000000000002956
  9
$PLIMMIN
 10
-0.2500002402958907
 20
-0.2499999962453767
  9
$PLIMMAX
 10
10.7499995194082203
 20
8.2499997634587334
  9
$UNITMODE
 70
     0
  9
$VISRETAIN
 70
     0
  9
$PLINEGEN
 70
     0
  9
$PSLTSCALE
 70
     0
  0
ENDSEC
  0
SECTION
  2
TABLES
  0
TABLE
  2
VPORT
 70
     1
  0
VPORT
  2
*ACTIVE
 70
     0
 10
0.0
 20
0.0
 11
1.0
 21
1.0
 12
4.7452474855219293
 22
92.9446725042188575
 13
0.0
 23
0.0
 14
1.0
 24
1.0
 15
10.0
 25
10.0
 16
-0.0000000000003553
 26
0.0
 36
1606.6375613758320924
 17
-69.7500000000000142
 27
124.3226623535155966
 37
194.3226623535155966
 40
590.9275004404285028
 41
1.8826466916354549
 42
50.0
 43
0.0
 44
0.0
 50
0.0
 51
0.0
 71
     0
 72
  1500
 73
     1
 74
     0
 75
     0
 76
     0
 77
     0
 78
     0
  0
ENDTAB
  0
TABLE
  2
LTYPE
 70
     3
  0
LTYPE
  2
CONTINUOUS
 70
     0
  3
Solid line
 72
    65
 73
     0
 40
0.0
  0
LTYPE
  2
VERDECKT
 70
     0
  3
Verdeckt __ __ __ __ __ __ __ __ __ __ __ __ __
 72
    65
 73
     2
 40
0.375
 49
0.25
 49
-0.125
  0
ENDTAB
  0
TABLE
  2
LAYER
 70
    10
  0
LAYER
  2
0
 70
     0
 62
     7
  6
CONTINUOUS
  0
LAYER
  2
VOLL
 70
     0
 62
     1
  6
CONTINUOUS
  0
LAYER
  2
DEFPOINTS
 70
     0
 62
     7
  6
CONTINUOUS
  0
ENDTAB
  0
TABLE
  2
STYLE
 70
     4
  0
STYLE
  2
STANDARD
 70
     0
 40
0.0
 41
0.8
 50
0.0
 71
     0
 42
3.5
  3
simplex.shx
  4

  0
STYLE
  2
GREEKS
 70
     0
 40
0.0
 41
0.8
 50
0.0
 71
     0
 42
2.5
  3
SIMPLEX.shx
  4

  0
ENDTAB
  0
TABLE
  2
VIEW
 70
     2
  0
ENDTAB
  0
TABLE
  2
UCS
 70
     0
  0
ENDTAB
  0
TABLE
  2
APPID
 70
    10
  0
APPID
  2
ACAD
 70
     0
  0
APPID
  2
ACAD_NAV_VCDISPLAY
 70
     0
  0
APPID
  2
ACAD_PSEXT
 70
     0
  0
APPID
  2
ACAD_EXEMPT_FROM_CAD_STANDARDS
 70
     0
  0
APPID
  2
ACAD_MLEADERVER
 70
     0
  0
APPID
  2
ACAD_DSTYLE_DIMRADIAL_EXTENSION
 70
     0
  0
APPID
  2
ACADANNOMONITORALERTICONDI
 70
     0
  0
APPID
  2
ACAECLAYERSTANDARD
 70
     0
  0
APPID
  2
ACCMTRANSPARENCY
 70
     0
  0
APPID
  2
ACAD_OBJECT_CHANGE_GUID
 70
     0
  0
ENDTAB
  0
TABLE
  2
DIMSTYLE
 70
     2
  0
DIMSTYLE
  2
STANDARD
 70
     0
  3

  4

  5

  6

  7

 40
1.0
 41
0.18
 42
0.0625
 43
0.38
 44
0.18
 45
0.0
 46
0.0
 47
0.0
 48
0.0
140
0.18
141
0.09
142
0.0
143
25.3999999999999986
144
1.0
145
0.0
146
1.0
147
0.09
 71
     0
 72
     0
 73
     1
 74
     1
 75
     0
 76
     0
 77
     0
 78
     0
170
     0
171
     2
172
     0
173
     0
174
     0
175
     0
176
     0
177
     0
178
     0
  0
ENDTAB
  0
ENDSEC
  0
SECTION
  2
BLOCKS
  0
BLOCK
  8
0
  2
$MODEL_SPACE
 70
     0
 10
0.0
 20
0.0
 30
0.0
  3
$MODEL_SPACE
  1

  0
ENDBLK
  5
36
  8
0
  0
BLOCK
 67
     1
  8
0
  2
$PAPER_SPACE
 70
     0
 10
0.0
 20
0.0
 30
0.0
  3
$PAPER_SPACE
  1

  0
ENDBLK
  5
34
 67
     1
  8
0
  0
BLOCK
  8
0
  2
A$C5FD31FEE
 70
     0
 10
0.0
 20
0.0
 30
0.0
  3
A$C5FD31FEE
  1

  0
ARC
  5
19B8
  8
0
  6
CONTINUOUS
 62
     3
 10
-0.0000000000000213
 20
0.0000000000000158
 30
0.0
 40
66.5
 50
270.0
 51
90.0
  0
CIRCLE
  5
19B9
  8
0
  6
CONTINUOUS
 62
     3
 10
-130.0000000000001137
 20
0.0000000000000338
 30
0.0000000000000568
 40
69.9999999999999716
  0
CIRCLE
  5
19BA
  8
0
  6
CONTINUOUS
 62
     3
 10
-130.0000000000001137
 20
0.0000000000000312
 30
0.0000000000000568
 40
69.0
  0
CIRCLE
  5
19BB
  8
0
  6
CONTINUOUS
 62
     3
 10
-130.0
 20
0.0000000000000288
 30
0.0000000000000568
 40
64.0
  0
CIRCLE
  5
19BC
  8
0
  6
CONTINUOUS
 62
     3
 10
-130.0000000000001137
 20
0.0000000000000338
 30
0.0000000000000568
 40
72.7584447974061135
  0
CIRCLE
  5
19BD
  8
0
  6
CONTINUOUS
 62
     3
 10
-130.0000000000001137
 20
0.000000000000033
 30
0.0000000000000568
 40
76.0
  0
LINE
  5
19BE
  8
0
  6
CONTINUOUS
 62
     3
 10
-25.0628663196526311
 20
-66.4999999999999858
 30
0.0
 11
-93.206658211029648
 21
-66.4999999999999858
 31
0.0000000000000142
  0
LINE
  5
19BF
  8
0
  6
CONTINUOUS
 62
     3
 10
-25.0628663196526205
 20
66.5000000000000142
 30
0.0
 11
-93.2066582110295343
 21
66.5000000000000142
 31
0.0000000000000142
  0
LINE
  5
19C0
  8
0
  6
CONTINUOUS
 62
     3
 10
-25.0628663196525316
 20
-66.4999999999999858
 30
0.0
 11
-0.0000000000000213
 21
-66.4999999999999858
 31
0.0
  0
LINE
  5
19C1
  8
0
  6
CONTINUOUS
 62
     3
 10
-0.0000000000000356
 20
66.5000000000000142
 30
0.0
 11
-25.0628663196525885
 21
66.5000000000000142
 31
0.0
  0
ARC
  5
19C2
  8
0
  6
VERDECKT
 62
     1
 10
-0.0000000000000213
 20
0.0000000000000158
 30
0.0
 40
64.0
 50
270.0
 51
90.0
  0
CIRCLE
  5
19C3
  8
0
  6
VERDECKT
 62
     1
 10
0.0
 20
0.00000000000001
 30
0.0
 40
63.3875793553184508
  0
ARC
  5
19C4
  8
0
  6
VERDECKT
 62
     1
 10
-0.0000000000000213
 20
0.0000000000000229
 30
0.0
 40
66.5
 50
90.0
 51
270.0
  0
CIRCLE
  5
19C5
  8
0
  6
VERDECKT
 62
     1
 10
0.0
 20
0.00000000000001
 30
0.0
 40
65.8971289491768033
  0
CIRCLE
  5
19C6
  8
0
  6
VERDECKT
 62
     1
 10
-130.0000000000001137
 20
0.000000000000033
 30
0.0000000000000568
 40
73.5
  0
CIRCLE
  5
19C7
  8
0
  6
VERDECKT
 62
     1
 10
-130.0000000000001137
 20
0.0000000000000312
 30
0.0000000000000568
 40
71.5
  0
CIRCLE
  5
19C8
  8
0
  6
VERDECKT
 62
     1
 10
-130.0
 20
0.0000000000000288
 30
0.0000000000000568
 40
66.5
  0
LINE
  5
19C9
  8
0
  6
VERDECKT
 62
     1
 10
-104.9371336803484951
 20
64.0000000000000284
 30
0.0000000000000284
 11
-130.0000000000001137
 21
64.0000000000000284
 31
0.0000000000000568
  0
LINE
  5
19CA
  8
0
  6
VERDECKT
 62
     1
 10
-130.000000000000199
 20
-63.9999999999999716
 30
0.0000000000000568
 11
-104.9371336803484951
 21
-63.9999999999999787
 31
0.0000000000000284
  0
LINE
  5
19CB
  8
0
  6
VERDECKT
 62
     1
 10
-25.0628663196525103
 20
-63.9999999999999787
 30
0.0
 11
-104.9371336803483956
 21
-63.9999999999999716
 31
0.0000000000000142
  0
LINE
  5
19CC
  8
0
  6
VERDECKT
 62
     1
 10
-25.0628663196525103
 20
64.0000000000000142
 30
0.0
 11
-104.9371336803483956
 21
64.0000000000000142
 31
0.0000000000000142
  0
LINE
  5
19CD
  8
0
  6
VERDECKT
 62
     1
 10
-25.062866319652521
 20
-63.9999999999999787
 30
0.0
 11
-0.0000000000000213
 21
-63.9999999999999787
 31
0.0
  0
LINE
  5
19CE
  8
0
  6
VERDECKT
 62
     1
 10
-0.0000000000000213
 20
64.0000000000000142
 30
0.0
 11
-25.0628663196525494
 21
64.0000000000000142
 31
0.0
  0
LINE
  5
19CF
  8
0
  6
VERDECKT
 62
     1
 10
-104.9371336803484951
 20
66.5000000000000284
 30
0.0000000000000284
 11
-130.0000000000001137
 21
66.5000000000000284
 31
0.0000000000000568
  0
LINE
  5
19D0
  8
0
  6
VERDECKT
 62
     1
 10
-130.0000000000001137
 20
-66.4999999999999716
 30
0.0000000000000568
 11
-104.9371336803483956
 21
-66.4999999999999716
 31
0.0000000000000284
  0
LINE
  5
19D1
  8
0
  6
VERDECKT
 62
     1
 10
-93.206658211029648
 20
-66.4999999999999858
 30
0.0000000000000284
 11
-104.9371336803484951
 21
-66.4999999999999858
 31
0.000000000000032
  0
LINE
  5
19D2
  8
0
  6
VERDECKT
 62
     1
 10
-93.2066582110295627
 20
66.5000000000000142
 30
0.0000000000000284
 11
-104.9371336803484951
 21
66.5000000000000142
 31
0.000000000000032
  0
ENDBLK
  5
19D4
  8
0
  0
BLOCK
  8
0
  2
A$C07C0496A
 70
     0
 10
0.0
 20
0.0
 30
0.0
  3
A$C07C0496A
  1

  0
LINE
  5
19D8
  8
0
  6
CONTINUOUS
 62
     3
 10
-65.8971289491768033
 20
0.0
 30
0.0
 11
65.8971289491768033
 21
0.0
 31
0.0
210
0.0
220
1.0
230
-0.0000000000000002
  0
LINE
  5
19D9
  8
0
  6
CONTINUOUS
 62
     3
 10
-202.7584447974060993
 20
388.645322379727304
 30
-0.0000000000000863
 11
-57.2415552025938723
 21
388.645322379727304
 31
-0.0000000000000863
210
0.0
220
1.0
230
-0.0000000000000002
  0
LINE
  5
19DA
  8
0
  6
CONTINUOUS
 62
     3
 10
66.5
 20
93.8900000000003558
 30
-0.0000000000000208
 11
66.5
 21
6.8908476427288017
 31
-0.0000000000000015
210
0.0
220
1.0
230
-0.0000000000000002
  0
LINE
  5
19DB
  8
0
  6
CONTINUOUS
 62
     3
 10
-66.5
 20
93.8899999999993753
 30
-0.0000000000000208
 11
-66.5
 21
6.8908476427288017
 31
-0.0000000000000015
210
0.0
220
1.0
230
-0.0000000000000002
  0
LINE
  5
19DC
  8
0
  6
CONTINUOUS
 62
     3
 10
-65.8971289491768744
 20
-0.0000000000000049
 30
0.0
 11
-66.5000000000000568
 21
6.8908476427287972
 31
-0.0000000000000015
210
0.0
220
1.0
230
-0.0000000000000002
  0
LINE
  5
19DD
  8
0
  6
CONTINUOUS
 62
     3
 10
65.8971289491768744
 20
-0.0000000000000049
 30
0.0
 11
66.5000000000000568
 21
6.8908476427287972
 31
-0.0000000000000015
210
0.0
220
1.0
230
-0.0000000000000002
  0
LINE
  5
19DE
  8
0
  6
CONTINUOUS
 62
     3
 10
-57.2415552025938865
 20
388.645322379727304
 30
-0.0000000000000863
 11
-56.8107663889013281
 21
387.7214927874858859
 31
-0.0000000000000861
210
0.0
220
1.0
230
-0.0000000000000002
  0
LINE
  5
19DF
  8
0
  6
CONTINUOUS
 62
     3
 10
-202.7584447974060993
 20
388.645322379727304
 30
-0.0000000000000863
 11
-203.1892336110987003
 21
387.7214927874858859
 31
-0.0000000000000861
210
0.0
220
1.0
230
-0.0000000000000002
  0
ARC
  5
19E0
  8
0
  6
CONTINUOUS
 62
     3
 10
175.9999999999974989
 20
375.0429449352624829
 30
0.0
 40
30.0000000000024194
210
0.0
220
-0.0000000000000002
230
-1.0
 50
0.0000000000008778
 51
25.0000000000028386
  0
ARC
  5
19E1
  8
0
  6
CONTINUOUS
 62
     3
 10
84.0000000000024158
 20
375.0429449352624829
 30
0.0
 40
30.0000000000024194
210
0.0
220
-0.0000000000000002
230
-1.0
 50
154.9999999999971863
 51
179.9999999999990905
  0
LINE
  5
19E2
  8
0
  6
CONTINUOUS
 62
     3
 10
-54.0
 20
375.0429449352628808
 30
-0.0000000000000833
 11
-54.0
 21
365.9363223797271871
 31
-0.0000000000000813
210
0.0
220
1.0
230
-0.0000000000000002
  0
LINE
  5
19E3
  8
0
  6
CONTINUOUS
 62
     3
 10
-206.0
 20
375.0429449352628808
 30
-0.0000000000000833
 11
-206.0
 21
365.9363223797271871
 31
-0.0000000000000813
210
0.0
220
1.0
230
-0.0000000000000002
  0
ARC
  5
19E4
  8
0
  6
CONTINUOUS
 62
     3
 10
175.9974501330131886
 20
365.9375117900970054
 30
0.0
 40
30.0025498905630599
210
0.0
220
-0.0000000000000002
230
-1.0
 50
334.9928416634459722
 51
359.9977285865846852
  0
ARC
  5
19E5
  8
0
  6
CONTINUOUS
 62
     3
 10
84.0025498669864845
 20
365.937511790096778
 30
0.0
 40
30.0025498905627899
210
0.0
220
-0.0000000000000002
230
-1.0
 50
180.0022714134150021
 51
205.0071583365539993
  0
ARC
  5
19E6
  8
0
  6
CONTINUOUS
 62
     3
 10
219.5000000000028137
 20
345.6453223797263945
 30
0.0
 40
18.0000000000027605
210
0.0
220
-0.0000000000000002
230
-1.0
 50
154.9928416634483028
 51
179.9999999999978115
  0
ARC
  5
19E7
  8
0
  6
CONTINUOUS
 62
     3
 10
40.4999999999980673
 20
345.6453223797266219
 30
0.0
 40
18.0000000000019185
210
0.0
220
-0.0000000000000002
230
-1.0
 50
0.0000000000018066
 51
25.007158336552461
  0
LINE
  5
19E8
  8
0
  6
CONTINUOUS
 62
     3
 10
-58.5
 20
345.6453223797271903
 30
-0.0000000000000767
 11
-58.5
 21
322.1140418023982761
 31
-0.0000000000000715
210
0.0
220
1.0
230
-0.0000000000000002
  0
LINE
  5
19E9
  8
0
  6
CONTINUOUS
 62
     3
 10
-201.5
 20
345.6453223797271903
 30
-0.0000000000000767
 11
-201.5
 21
322.1140418023982761
 31
-0.0000000000000715
210
0.0
220
1.0
230
-0.0000000000000002
  0
ARC
  5
19EA
  8
0
  6
CONTINUOUS
 62
     3
 10
183.4999999999992895
 20
322.1140418023983898
 30
0.0
 40
18.0000000000006608
210
0.0
220
-0.0000000000000002
230
-1.0
 50
325.2280559680517058
 51
359.9999999999996021
  0
ARC
  5
19EB
  8
0
  6
CONTINUOUS
 62
     3
 10
76.5000000000005116
 20
322.1140418023982761
 30
0.0
 40
18.0000000000005116
210
0.0
220
-0.0000000000000002
230
-1.0
 50
180.0000000000001137
 51
214.7719440319484079
  0
ARC
  5
19EC
  8
0
  6
CONTINUOUS
 62
     3
 10
206.4999999999994031
 20
306.1453223797270766
 30
0.0
 40
9.9999999999993907
210
0.0
220
-0.0000000000000002
230
-1.0
 50
145.2280559680511089
 51
179.9999999999996021
  0
ARC
  5
19ED
  8
0
  6
CONTINUOUS
 62
     3
 10
53.5000000000002629
 20
306.1453223797270198
 30
0.0
 40
9.9999999999997442
210
0.0
220
-0.0000000000000002
230
-1.0
 50
0.0000000000009796
 51
34.7719440319483084
  0
LINE
  5
19EE
  8
0
  6
CONTINUOUS
 62
     3
 10
-63.5
 20
306.1453223797271903
 30
-0.000000000000068
 11
-63.5
 21
301.7553223797277724
 31
-0.000000000000067
210
0.0
220
1.0
230
-0.0000000000000002
  0
LINE
  5
19EF
  8
0
  6
CONTINUOUS
 62
     3
 10
-196.5
 20
306.1453223797271903
 30
-0.000000000000068
 11
-196.5
 21
301.7553223797261808
 31
-0.000000000000067
210
0.0
220
1.0
230
-0.0000000000000002
  0
ARC
  5
19F0
  8
0
  6
CONTINUOUS
 62
     3
 10
39.9999999999995168
 20
301.7553223797273176
 30
0.0
 40
156.5000000000005116
210
0.0
220
-0.0000000000000002
230
-1.0
 50
316.1804242593717049
 51
359.9999999999996021
  0
ARC
  5
19F1
  8
0
  6
CONTINUOUS
 62
     3
 10
-39.9999999999995168
 20
301.7553223797273176
 30
-0.000000000000067
 40
23.50000000000054
 50
179.9999999999986926
 51
223.8195757406263908
  0
LINE
  5
19F2
  8
0
  6
CONTINUOUS
 62
     3
 10
-73.0441928723541167
 20
110.1611586757080943
 30
-0.0000000000000245
 11
-152.9184602330500127
 21
193.3963294968235971
 31
-0.0000000000000429
210
0.0
220
1.0
230
-0.0000000000000002
  0
LINE
  5
19F3
  8
0
  6
CONTINUOUS
 62
     3
 10
22.9184602330489398
 20
202.2489928829045027
 30
-0.0000000000000449
 11
-56.9558071276468993
 21
285.4841637040199203
 31
-0.0000000000000634
210
0.0
220
1.0
230
-0.0000000000000002
  0
ARC
  5
19F4
  8
0
  6
CONTINUOUS
 62
     3
 10
90.0000000000018332
 20
93.8899999999993327
 30
0.0
 40
156.5000000000017906
210
0.0
220
-0.0000000000000002
230
-1.0
 50
136.180424259371307
 51
179.9999999999996021
  0
ARC
  5
19F5
  8
0
  6
CONTINUOUS
 62
     3
 10
-90.0000000000017479
 20
93.8899999999993753
 30
-0.0000000000000208
 40
23.5000000000017515
 50
360.0
 51
43.8195757406286006
  0
LINE
  5
19F6
  8
0
  6
VERDECKT
 62
     1
 10
-63.3875793553184508
 20
0.0
 30
0.0
 11
-63.9999999999999432
 21
93.8899999999993469
 31
-0.0000000000000208
210
0.0
220
1.0
230
-0.0000000000000002
  0
LINE
  5
19F7
  8
0
  6
VERDECKT
 62
     1
 10
63.3875793553184508
 20
0.0000000000000284
 30
0.0
 11
63.9999999999999503
 21
93.8900000000004979
 31
-0.0000000000000208
210
0.0
220
1.0
230
-0.0000000000000002
  0
LINE
  5
19F8
  8
0
  6
VERDECKT
 62
     1
 10
-60.0000000000000284
 20
388.645322379727304
 30
-0.0000000000000863
 11
-59.0765358564919794
 21
386.6649471331318182
 31
-0.0000000000000859
210
0.0
220
1.0
230
-0.0000000000000002
  0
LINE
  5
19F9
  8
0
  6
VERDECKT
 62
     1
 10
-200.0
 20
388.645322379727304
 30
-0.0000000000000863
 11
-200.9234641435079993
 21
386.6649471331318182
 31
-0.0000000000000859
210
0.0
220
1.0
230
-0.0000000000000002
  0
ARC
  5
19FA
  8
0
  6
VERDECKT
 62
     1
 10
176.0000000000021885
 20
375.0429449352632787
 30
0.0
 40
27.4999999999978115
210
0.0
220
-0.0000000000000002
230
-1.0
 50
359.9999999999992042
 51
25.0000000000004086
  0
ARC
  5
19FB
  8
0
  6
VERDECKT
 62
     1
 10
83.99999999999838
 20
375.0429449352631082
 30
0.0
 40
27.4999999999984013
210
0.0
220
-0.0000000000000002
230
-1.0
 50
154.999999999999801
 51
180.0000000000003126
  0
LINE
  5
19FC
  8
0
  6
VERDECKT
 62
     1
 10
-56.5
 20
375.0429449352628808
 30
-0.0000000000000833
 11
-56.5
 21
365.9363223797271871
 31
-0.0000000000000813
210
0.0
220
1.0
230
-0.0000000000000002
  0
LINE
  5
19FD
  8
0
  6
VERDECKT
 62
     1
 10
-203.5
 20
375.0429449352628808
 30
-0.0000000000000833
 11
-203.5
 21
365.9363223797271871
 31
-0.0000000000000813
210
0.0
220
1.0
230
-0.0000000000000002
  0
ARC
  5
19FE
  8
0
  6
VERDECKT
 62
     1
 10
175.1489776541943968
 20
366.1263234449028801
 30
0.0
 40
28.3516590071398191
210
0.0
220
-0.0000000000000002
230
-1.0
 50
335.2128276928119135
 51
359.6160245641224833
  0
ARC
  5
19FF
  8
0
  6
VERDECKT
 62
     1
 10
84.8510223458055037
 20
366.1263234449028232
 30
0.0
 40
28.3516590071398298
210
0.0
220
-0.0000000000000002
230
-1.0
 50
180.3839754358772893
 51
204.7871723071880865
  0
ARC
  5
1A00
  8
0
  6
VERDECKT
 62
     1
 10
219.5000000000009095
 20
345.6453223797270766
 30
0.0
 40
20.5000000000008491
210
0.0
220
-0.0000000000000002
230
-1.0
 50
155.2128276928125103
 51
180.0000000000001137
  0
ARC
  5
1A01
  8
0
  6
VERDECKT
 62
     1
 10
40.4999999999994031
 20
345.6453223797271903
 30
0.0
 40
20.5000000000006004
210
0.0
220
-0.0000000000000002
230
-1.0
 50
359.9999999999997158
 51
24.7871723071876104
  0
LINE
  5
1A02
  8
0
  6
VERDECKT
 62
     1
 10
-61.0
 20
345.6453223797270198
 30
-0.0000000000000767
 11
-61.0
 21
322.1140418023982761
 31
-0.0000000000000715
210
0.0
220
1.0
230
-0.0000000000000002
  0
LINE
  5
1A03
  8
0
  6
VERDECKT
 62
     1
 10
-199.0
 20
345.6453223797270198
 30
-0.0000000000000767
 11
-199.0
 21
322.1140418023982761
 31
-0.0000000000000715
210
0.0
220
1.0
230
-0.0000000000000002
  0
ARC
  5
1A04
  8
0
  6
VERDECKT
 62
     1
 10
183.5000000000007105
 20
322.1140418023982193
 30
0.0
 40
15.4999999999993001
210
0.0
220
-0.0000000000000002
230
-1.0
 50
325.2280559680500005
 51
0.0000000000004262
  0
ARC
  5
1A05
  8
0
  6
VERDECKT
 62
     1
 10
76.4999999999993747
 20
322.1140418023982193
 30
0.0
 40
15.4999999999993801
210
0.0
220
-0.0000000000000002
230
-1.0
 50
179.9999999999996021
 51
214.7719440319498005
  0
ARC
  5
1A06
  8
0
  6
VERDECKT
 62
     1
 10
206.4999999999978968
 20
306.1453223797277019
 30
0.0
 40
12.4999999999979501
210
0.0
220
-0.0000000000000002
230
-1.0
 50
145.228055968049091
 51
180.0000000000025011
  0
ARC
  5
1A07
  8
0
  6
VERDECKT
 62
     1
 10
53.5000000000020393
 20
306.1453223797277019
 30
0.0
 40
12.4999999999979501
210
0.0
220
-0.0000000000000002
230
-1.0
 50
359.9999999999973852
 51
34.7719440319508593
  0
LINE
  5
1A08
  8
0
  6
VERDECKT
 62
     1
 10
-66.0
 20
306.1453223797271903
 30
-0.000000000000068
 11
-66.0
 21
301.7553223797270903
 31
-0.000000000000067
210
0.0
220
1.0
230
-0.0000000000000002
  0
LINE
  5
1A09
  8
0
  6
VERDECKT
 62
     1
 10
-194.0
 20
306.1453223797271903
 30
-0.000000000000068
 11
-194.0
 21
301.7553223797261808
 31
-0.000000000000067
210
0.0
220
1.0
230
-0.0000000000000002
  0
ARC
  5
1A0A
  8
0
  6
VERDECKT
 62
     1
 10
39.9999999999994316
 20
301.7553223797273745
 30
0.0
 40
154.0000000000007105
210
0.0
220
-0.0000000000000002
230
-1.0
 50
316.1804242593714775
 51
359.9999999999996021
  0
ARC
  5
1A0B
  8
0
  6
VERDECKT
 62
     1
 10
-39.9999999999994316
 20
301.7553223797273745
 30
-0.000000000000067
 40
26.0000000000006715
 50
180.0000000000005969
 51
223.8195757406265898
  0
LINE
  5
1A0C
  8
0
  6
VERDECKT
 62
     1
 10
-71.2403836034553848
 20
111.8921330029109953
 30
-0.0000000000000248
 11
-151.1146509641511955
 21
195.1273038240265123
 31
-0.0000000000000433
210
0.0
220
1.0
230
-0.0000000000000002
  0
LINE
  5
1A0D
  8
0
  6
VERDECKT
 62
     1
 10
21.1146509641504885
 20
200.5180185557015875
 30
-0.0000000000000445
 11
-58.7596163965454394
 21
283.7531893768170903
 31
-0.000000000000063
210
0.0
220
1.0
230
-0.0000000000000002
  0
ARC
  5
1A0E
  8
0
  6
VERDECKT
 62
     1
 10
90.0000000000018758
 20
93.8899999999992616
 30
0.0
 40
154.0000000000017906
210
0.0
220
-0.0000000000000002
230
-1.0
 50
136.180424259371307
 51
179.9999999999994884
  0
ARC
  5
1A0F
  8
0
  6
VERDECKT
 62
     1
 10
-90.0000000000016058
 20
93.8899999999993753
 30
-0.0000000000000208
 40
26.00000000000162
 50
360.0
 51
43.8195757406283732
  0
ENDBLK
  5
1A11
  8
0
  0
ENDSEC
  0
SECTION
  2
ENTITIES
  0
TEXT
  5
8F
  8
VOLL
 10
78.076754716981128
 20
31.025947764705851
 30
0.0
 40
1.8
  1

  7
GREEKS
  0
TEXT
  5
15FF
  8
VOLL
 10
576.8006548156939743
 20
431.6343679941629148
 30
0.0
 40
1.8
  1

  7
GREEKS
  0
TEXT
  5
17AF
  8
VOLL
 10
693.3692827837484174
 20
462.07441252232951
 30
0.0
 40
1.8
  1

  7
GREEKS
  0
INSERT
  5
19D5
  8
DEFPOINTS
  2
A$C5FD31FEE
 10
0.0
 20
0.00000000000001
 30
0.0000000000000284
  0
INSERT
  5
1A12
  8
DEFPOINTS
  2
A$C07C0496A
 10
-0.0000000000000395
 20
121.8780819036187069
 30
0.0000000000000284
  0
VIEWPORT
  5
181B
 67
     1
  8
0
 10
3.0291804772288859
 20
3.5266800124974451
 30
0.0
 40
14.20448402544217
 41
7.5449547111267741
 68
     1
 69
     1
1001
ACAD
1000
MVIEW
1002
{
1070
    16
1010
0.0
1020
0.0
1030
0.0
1010
0.0
1020
0.0
1030
1.0
1040
0.0
1040
7.5449547111267741
1040
3.0291804772288859
1040
3.5266800124974451
1040
50.0
1040
0.0
1040
0.0
1070
     0
1070
  1500
1070
     1
1070
     1
1070
     0
1070
     0
1070
     0
1070
     0
1040
0.0
1040
0.0
1040
0.0
1040
10.0
1040
10.0
1040
10.0
1040
10.0
1070
     0
1002
{
1002
}
1002
}
  0
ENDSEC
  0
EOF
