  0
SECTION
  2
HEADER
  9
$ACADVER
  1
AC1009
  9
$INSBASE
 10
0.0
 20
0.0
 30
0.0
  9
$EXTMIN
 10
-206.0790248984710047
 20
-59.0436007018399707
 30
94.9784860794646875
  9
$EXTMAX
 10
76.0663566692949047
 20
478.3618616865692275
 30
95.006714408526463
  9
$LIMMIN
 10
0.0
 20
0.0
  9
$LIMMAX
 10
419.9999999999998863
 20
594.0
  9
$ORTHOMODE
 70
     1
  9
$REGENMODE
 70
     1
  9
$FILLMODE
 70
     1
  9
$QTEXTMODE
 70
     0
  9
$MIRRTEXT
 70
     1
  9
$DRAGMODE
 70
     2
  9
$LTSCALE
 40
20.0
  9
$OSMODE
 70
  1327
  9
$ATTMODE
 70
     1
  9
$TEXTSIZE
 40
3.5
  9
$TRACEWID
 40
0.5
  9
$TEXTSTYLE
  7
STANDARD
  9
$CLAYER
  8
0
  9
$CELTYPE
  6
BYLAYER
  9
$CECOLOR
 62
   256
  9
$DIMSCALE
 40
2.0
  9
$DIMASZ
 40
3.5
  9
$DIMEXO
 40
1.0
  9
$DIMDLI
 40
7.0
  9
$DIMRND
 40
0.0
  9
$DIMDLE
 40
0.0
  9
$DIMEXE
 40
1.0
  9
$DIMTP
 40
0.0
  9
$DIMTM
 40
0.0
  9
$DIMTXT
 40
3.5
  9
$DIMCEN
 40
1.5
  9
$DIMTSZ
 40
0.0
  9
$DIMTOL
 70
     0
  9
$DIMLIM
 70
     0
  9
$DIMTIH
 70
     0
  9
$DIMTOH
 70
     0
  9
$DIMSE1
 70
     0
  9
$DIMSE2
 70
     0
  9
$DIMTAD
 70
     1
  9
$DIMZIN
 70
     8
  9
$DIMBLK
  1

  9
$DIMASO
 70
     1
  9
$DIMSHO
 70
     0
  9
$DIMPOST
  1

  9
$DIMAPOST
  1

  9
$DIMALT
 70
     0
  9
$DIMALTD
 70
     2
  9
$DIMALTF
 40
25.3999999999999986
  9
$DIMLFAC
 40
1.0
  9
$DIMTOFL
 70
     1
  9
$DIMTVP
 40
0.0
  9
$DIMTIX
 70
     0
  9
$DIMSOXD
 70
     0
  9
$DIMSAH
 70
     0
  9
$DIMBLK1
  1

  9
$DIMBLK2
  1

  9
$DIMSTYLE
  2
STANDARD
  9
$DIMCLRD
 70
     0
  9
$DIMCLRE
 70
     0
  9
$DIMCLRT
 70
     1
  9
$DIMTFAC
 40
0.5142857142857143
  9
$DIMGAP
 40
1.5
  9
$LUNITS
 70
     2
  9
$LUPREC
 70
     2
  9
$SKETCHINC
 40
1.0
  9
$FILLETRAD
 40
82.5
  9
$AUNITS
 70
     0
  9
$AUPREC
 70
     0
  9
$MENU
  1
ACAD
  9
$ELEVATION
 40
0.0
  9
$PELEVATION
 40
0.0
  9
$THICKNESS
 40
0.0
  9
$LIMCHECK
 70
     0
  9
$BLIPMODE
 70
     0
  9
$CHAMFERA
 40
0.0
  9
$CHAMFERB
 40
0.0
  9
$SKPOLY
 70
     0
  9
$TDCREATE
 40
2455397.8646990740671754
  9
$TDUPDATE
 40
2458383.3323263889178634
  9
$TDINDWG
 40
0.0964036343
  9
$TDUSRTIMER
 40
0.0964036343
  9
$USRTIMER
 70
     1
  9
$ANGBASE
 50
0.0
  9
$ANGDIR
 70
     0
  9
$PDMODE
 70
     0
  9
$PDSIZE
 40
0.0
  9
$PLINEWID
 40
0.0
  9
$COORDS
 70
     1
  9
$SPLFRAME
 70
     0
  9
$SPLINETYPE
 70
     6
  9
$SPLINESEGS
 70
     8
  9
$ATTDIA
 70
     0
  9
$ATTREQ
 70
     0
  9
$HANDLING
 70
     1
  9
$HANDSEED
  5
15C1
  9
$SURFTAB1
 70
     6
  9
$SURFTAB2
 70
     6
  9
$SURFTYPE
 70
     6
  9
$SURFU
 70
     6
  9
$SURFV
 70
     6
  9
$UCSNAME
  2

  9
$UCSORG
 10
0.0
 20
0.0
 30
0.0
  9
$UCSXDIR
 10
1.0
 20
0.0
 30
0.0
  9
$UCSYDIR
 10
0.0
 20
1.0
 30
0.0
  9
$PUCSNAME
  2

  9
$PUCSORG
 10
0.0
 20
0.0
 30
0.0
  9
$PUCSXDIR
 10
1.0
 20
0.0
 30
0.0
  9
$PUCSYDIR
 10
0.0
 20
1.0
 30
0.0
  9
$USERI1
 70
     0
  9
$USERI2
 70
     0
  9
$USERI3
 70
     0
  9
$USERI4
 70
     0
  9
$USERI5
 70
     0
  9
$USERR1
 40
0.0
  9
$USERR2
 40
0.0
  9
$USERR3
 40
0.0
  9
$USERR4
 40
0.0
  9
$USERR5
 40
0.0
  9
$WORLDVIEW
 70
     1
  9
$SHADEDGE
 70
     3
  9
$SHADEDIF
 70
    70
  9
$TILEMODE
 70
     1
  9
$MAXACTVP
 70
    16
  9
$PLIMCHECK
 70
     0
  9
$PEXTMIN
 10
-0.1588594694990846
 20
-0.1562270908129832
 30
-0.0000000000112498
  9
$PEXTMAX
 10
5.428756368935022
 20
7.4616849852814218
 30
0.0000000000002956
  9
$PLIMMIN
 10
-0.2500002402958907
 20
-0.2499999962453767
  9
$PLIMMAX
 10
10.7499995194082203
 20
8.2499997634587334
  9
$UNITMODE
 70
     0
  9
$VISRETAIN
 70
     0
  9
$PLINEGEN
 70
     0
  9
$PSLTSCALE
 70
     0
  0
ENDSEC
  0
SECTION
  2
TABLES
  0
TABLE
  2
VPORT
 70
     1
  0
VPORT
  2
*ACTIVE
 70
     0
 10
0.0
 20
0.0
 11
1.0
 21
1.0
 12
3.9936658854121561
 22
79.6591304923645964
 13
0.0
 23
0.0
 14
1.0
 24
1.0
 15
10.0
 25
10.0
 16
-0.0000000000003268
 26
0.0
 36
1502.4113308524999866
 17
-69.0000000000002274
 27
130.0
 37
184.9999999999998863
 40
541.4259521319634132
 41
1.8826466916354549
 42
50.0
 43
0.0
 44
0.0
 50
0.0
 51
0.0
 71
     0
 72
  1500
 73
     1
 74
     0
 75
     0
 76
     0
 77
     0
 78
     0
  0
ENDTAB
  0
TABLE
  2
LTYPE
 70
     3
  0
LTYPE
  2
CONTINUOUS
 70
     0
  3
Solid line
 72
    65
 73
     0
 40
0.0
  0
LTYPE
  2
VERDECKT
 70
     0
  3
Verdeckt __ __ __ __ __ __ __ __ __ __ __ __ __
 72
    65
 73
     2
 40
0.375
 49
0.25
 49
-0.125
  0
ENDTAB
  0
TABLE
  2
LAYER
 70
    10
  0
LAYER
  2
0
 70
     0
 62
     7
  6
CONTINUOUS
  0
LAYER
  2
VOLL
 70
     0
 62
     1
  6
CONTINUOUS
  0
LAYER
  2
DEFPOINTS
 70
     0
 62
     7
  6
CONTINUOUS
  0
ENDTAB
  0
TABLE
  2
STYLE
 70
     4
  0
STYLE
  2
STANDARD
 70
     0
 40
0.0
 41
0.8
 50
0.0
 71
     0
 42
3.5
  3
simplex.shx
  4

  0
STYLE
  2
GREEKS
 70
     0
 40
0.0
 41
0.8
 50
0.0
 71
     0
 42
2.5
  3
SIMPLEX.shx
  4

  0
ENDTAB
  0
TABLE
  2
VIEW
 70
     2
  0
ENDTAB
  0
TABLE
  2
UCS
 70
     0
  0
ENDTAB
  0
TABLE
  2
APPID
 70
     9
  0
APPID
  2
ACAD
 70
     0
  0
APPID
  2
ACAECLAYERSTANDARD
 70
     0
  0
APPID
  2
ACCMTRANSPARENCY
 70
     0
  0
APPID
  2
ACAD_NAV_VCDISPLAY
 70
     0
  0
APPID
  2
ACAD_PSEXT
 70
     0
  0
APPID
  2
ACAD_EXEMPT_FROM_CAD_STANDARDS
 70
     0
  0
APPID
  2
ACAD_MLEADERVER
 70
     0
  0
APPID
  2
ACADANNOMONITORALERTICONDI
 70
     0
  0
APPID
  2
ACAD_OBJECT_CHANGE_GUID
 70
     0
  0
ENDTAB
  0
TABLE
  2
DIMSTYLE
 70
     2
  0
DIMSTYLE
  2
STANDARD
 70
     0
  3

  4

  5

  6

  7

 40
1.0
 41
0.18
 42
0.0625
 43
0.38
 44
0.18
 45
0.0
 46
0.0
 47
0.0
 48
0.0
140
0.18
141
0.09
142
0.0
143
25.3999999999999986
144
1.0
145
0.0
146
1.0
147
0.09
 71
     0
 72
     0
 73
     1
 74
     1
 75
     0
 76
     0
 77
     0
 78
     0
170
     0
171
     2
172
     0
173
     0
174
     0
175
     0
176
     0
177
     0
178
     0
  0
ENDTAB
  0
ENDSEC
  0
SECTION
  2
BLOCKS
  0
BLOCK
  8
0
  2
$MODEL_SPACE
 70
     0
 10
0.0
 20
0.0
 30
0.0
  3
$MODEL_SPACE
  1

  0
ENDBLK
  5
36
  8
0
  0
BLOCK
 67
     1
  8
0
  2
$PAPER_SPACE
 70
     0
 10
0.0
 20
0.0
 30
0.0
  3
$PAPER_SPACE
  1

  0
ENDBLK
  5
34
 67
     1
  8
0
  0
BLOCK
  8
0
  2
A$C140A4654
 70
     0
 10
0.0
 20
0.0
 30
0.0
  3
A$C140A4654
  1

  0
ARC
  5
1516
  8
0
  6
CONTINUOUS
 62
     3
 10
-0.0000000000002068
 20
0.0000000000000486
 30
0.0
 40
51.0000000000000284
 50
270.0
 51
90.0
  0
CIRCLE
  5
1517
  8
0
  6
CONTINUOUS
 62
     3
 10
-130.0000000000003979
 20
0.0000000000000335
 30
0.0
 40
53.4999999999999574
  0
CIRCLE
  5
1518
  8
0
  6
CONTINUOUS
 62
     3
 10
-130.0000000000003126
 20
0.0000000000000308
 30
0.0
 40
53.0000000000001208
  0
CIRCLE
  5
1519
  8
0
  6
CONTINUOUS
 62
     3
 10
-130.000000000000199
 20
0.0000000000000288
 30
0.0
 40
49.0000000000001918
  0
CIRCLE
  5
151A
  8
0
  6
CONTINUOUS
 62
     3
 10
-130.0000000000003979
 20
0.0000000000000335
 30
0.0
 40
55.7067558379250087
  0
CIRCLE
  5
151B
  8
0
  6
CONTINUOUS
 62
     3
 10
-130.0000000000003979
 20
0.0000000000000327
 30
0.0
 40
59.0
  0
LINE
  5
151C
  8
0
  6
CONTINUOUS
 62
     3
 10
-20.50252531694181
 20
-50.9999999999999716
 30
0.0
 11
-100.3352060516178028
 21
-50.9999999999999716
 31
-0.0000000000000142
  0
LINE
  5
151D
  8
0
  6
CONTINUOUS
 62
     3
 10
-20.50252531694181
 20
51.0000000000000213
 30
0.0
 11
-100.3352060516177033
 21
51.0000000000000284
 31
-0.0000000000000142
  0
LINE
  5
151E
  8
0
  6
CONTINUOUS
 62
     3
 10
-20.5025253169417283
 20
-50.9999999999999787
 30
0.0
 11
-0.0000000000000924
 21
-50.9999999999999787
 31
0.0
  0
LINE
  5
151F
  8
0
  6
CONTINUOUS
 62
     3
 10
-0.0000000000000931
 20
51.0000000000000071
 30
0.0
 11
-20.5025253169417105
 21
51.0000000000000071
 31
0.0
  0
CIRCLE
  5
1520
  8
0
  6
VERDECKT
 62
     1
 10
-0.0000000000000931
 20
0.0000000000000167
 30
0.0
 40
49.0
  0
CIRCLE
  5
1521
  8
0
  6
VERDECKT
 62
     1
 10
0.0
 20
0.0000000000000108
 30
0.0
 40
47.9424963626023768
  0
ARC
  5
1522
  8
0
  6
VERDECKT
 62
     1
 10
-0.0000000000000931
 20
0.0000000000000486
 30
0.0
 40
50.9999999999999716
 50
90.0
 51
270.0
  0
CIRCLE
  5
1523
  8
0
  6
VERDECKT
 62
     1
 10
0.0
 20
0.0000000000000108
 30
0.0
 40
49.9501360376889281
  0
CIRCLE
  5
1524
  8
0
  6
VERDECKT
 62
     1
 10
-130.0000000000003979
 20
0.0000000000000327
 30
0.0
 40
57.0000000000000426
  0
CIRCLE
  5
1525
  8
0
  6
VERDECKT
 62
     1
 10
-130.0000000000003979
 20
0.0000000000000308
 30
0.0
 40
55.0
  0
CIRCLE
  5
1526
  8
0
  6
VERDECKT
 62
     1
 10
-130.0000000000003979
 20
0.0000000000000288
 30
0.0
 40
51.0
  0
LINE
  5
1527
  8
0
  6
VERDECKT
 62
     1
 10
-109.4974746830585985
 20
49.0000000000000284
 30
-0.0000000000000284
 11
-130.0000000000003126
 21
49.0000000000000284
 31
0.0
  0
LINE
  5
1528
  8
0
  6
VERDECKT
 62
     1
 10
-130.0000000000003126
 20
-48.9999999999999716
 30
0.0
 11
-109.4974746830584991
 21
-48.9999999999999716
 31
-0.0000000000000284
  0
LINE
  5
1529
  8
0
  6
VERDECKT
 62
     1
 10
-20.5025253169415898
 20
-48.9999999999999787
 30
0.0
 11
-109.4974746830584991
 21
-48.9999999999999716
 31
-0.0000000000000142
  0
LINE
  5
152A
  8
0
  6
VERDECKT
 62
     1
 10
-20.5025253169415791
 20
49.0000000000000213
 30
0.0
 11
-109.4974746830584991
 21
49.0000000000000284
 31
-0.0000000000000142
  0
LINE
  5
152B
  8
0
  6
VERDECKT
 62
     1
 10
-20.5025253169415507
 20
-48.9999999999999787
 30
0.0
 11
-0.0000000000000924
 21
-48.9999999999999787
 31
0.0
  0
LINE
  5
152C
  8
0
  6
VERDECKT
 62
     1
 10
-0.0000000000000789
 20
49.0000000000000213
 30
0.0
 11
-20.5025253169415507
 21
49.0000000000000213
 31
0.0
  0
LINE
  5
152D
  8
0
  6
VERDECKT
 62
     1
 10
-109.4974746830585985
 20
51.0000000000000284
 30
-0.0000000000000284
 11
-130.0000000000003979
 21
51.0000000000000284
 31
0.0
  0
LINE
  5
152E
  8
0
  6
VERDECKT
 62
     1
 10
-130.0000000000003126
 20
-50.9999999999999716
 30
0.0
 11
-109.497474683058698
 21
-50.9999999999999716
 31
-0.0000000000000284
  0
LINE
  5
152F
  8
0
  6
VERDECKT
 62
     1
 10
-100.3352060516178028
 20
-50.9999999999999716
 30
-0.0000000000000284
 11
-109.497474683058698
 21
-50.9999999999999716
 31
-0.0000000000000302
  0
LINE
  5
1530
  8
0
  6
VERDECKT
 62
     1
 10
-100.3352060516177033
 20
51.0000000000000284
 30
-0.0000000000000284
 11
-109.497474683058698
 21
51.0000000000000284
 31
-0.0000000000000302
  0
ENDBLK
  5
1532
  8
0
  0
BLOCK
  8
0
  2
A$C16663478
 70
     0
 10
0.0
 20
0.0
 30
0.0
  3
A$C16663478
  1

  0
LINE
  5
1536
  8
0
  6
CONTINUOUS
 62
     3
 10
-49.9501360376889281
 20
-0.0000000000001137
 30
0.0
 11
49.9501360376889281
 21
0.0000000000001137
 31
0.0
210
0.0
220
1.0
230
-0.0000000000000002
  0
LINE
  5
1537
  8
0
  6
CONTINUOUS
 62
     3
 10
-185.7067558379254137
 20
369.9999999999997726
 30
-0.0000000000000822
 11
-74.2932441620754389
 21
369.9999999999997726
 31
-0.0000000000000822
210
0.0
220
1.0
230
-0.0000000000000002
  0
LINE
  5
1538
  8
0
  6
CONTINUOUS
 62
     3
 10
50.999999999999801
 20
95.0000000000000142
 30
-0.0000000000000211
 11
50.9999999999999716
 21
12.0000000000001403
 31
-0.0000000000000027
210
0.0
220
1.0
230
-0.0000000000000002
  0
LINE
  5
1539
  8
0
  6
CONTINUOUS
 62
     3
 10
-51.000000000000199
 20
94.9999999999998437
 30
-0.0000000000000211
 11
-51.0000000000000213
 21
11.9999999999999094
 31
-0.0000000000000027
210
0.0
220
1.0
230
-0.0000000000000002
  0
LINE
  5
153A
  8
0
  6
CONTINUOUS
 62
     3
 10
-49.9501360376889281
 20
-0.0000000000001146
 30
0.0
 11
-51.0
 21
11.9999999999999094
 31
-0.0000000000000027
210
0.0
220
1.0
230
-0.0000000000000002
  0
LINE
  5
153B
  8
0
  6
CONTINUOUS
 62
     3
 10
49.9501360376889565
 20
0.0000000000001101
 30
0.0
 11
50.9999999999999716
 21
12.0000000000001492
 31
-0.0000000000000027
210
0.0
220
1.0
230
-0.0000000000000002
  0
ARC
  5
153C
  8
0
  6
CONTINUOUS
 62
     3
 10
60.0000000000006324
 20
282.9898987322337121
 30
0.0
 40
120.9999999999997016
210
0.0
220
-0.0000000000000002
230
-1.0
 50
315.0000000000001137
 51
359.9999999999998863
  0
ARC
  5
153D
  8
0
  6
CONTINUOUS
 62
     3
 10
-60.0000000000006324
 20
282.9898987322337121
 30
-0.0000000000000628
 40
18.9999999999997691
 50
180.0000000000005969
 51
225.0000000000011937
  0
LINE
  5
153E
  8
0
  6
CONTINUOUS
 62
     3
 10
-56.5649711574559291
 20
108.4350288425444973
 30
-0.0000000000000241
 11
-145.559920523572913
 21
197.4299782086617085
 31
-0.0000000000000438
210
0.0
220
1.0
230
-0.0000000000000002
  0
LINE
  5
153F
  8
0
  6
CONTINUOUS
 62
     3
 10
15.55992052357227
 20
180.5599205235718898
 30
-0.0000000000000401
 11
-73.4350288425446536
 21
269.5548698896890869
 31
-0.0000000000000599
210
0.0
220
1.0
230
-0.0000000000000002
  0
ARC
  5
1540
  8
0
  6
CONTINUOUS
 62
     3
 10
70.0000000000005969
 20
94.9999999999998153
 30
0.0
 40
121.0000000000003979
210
0.0
220
-0.0000000000000002
230
-1.0
 50
135.000000000000199
 51
179.9999999999998863
  0
ARC
  5
1541
  8
0
  6
CONTINUOUS
 62
     3
 10
-70.0000000000006537
 20
94.9999999999997584
 30
-0.0000000000000211
 40
19.00000000000054
 50
0.0
 51
44.9999999999997229
  0
LINE
  5
1542
  8
0
  6
CONTINUOUS
 62
     3
 10
-74.2932441620754389
 20
369.9999999999997726
 30
-0.0000000000000822
 11
-73.3423053240841227
 21
367.9607050809460134
 31
-0.0000000000000817
210
0.0
220
1.0
230
-0.0000000000000002
  0
LINE
  5
1543
  8
0
  6
CONTINUOUS
 62
     3
 10
-185.7067558379254137
 20
369.9999999999997726
 30
-0.0000000000000822
 11
-186.6576946759167868
 21
367.9607050809460134
 31
-0.0000000000000817
210
0.0
220
1.0
230
-0.0000000000000002
  0
ARC
  5
1544
  8
0
  6
CONTINUOUS
 62
     3
 10
164.0000000000019043
 20
357.3952485374289836
 30
0.0
 40
24.9999999999985789
210
0.0
220
-0.0000000000000002
230
-1.0
 50
0.0
 51
25.0000000000008704
  0
ARC
  5
1545
  8
0
  6
CONTINUOUS
 62
     3
 10
95.9999999999990052
 20
357.3952485374289836
 30
0.0
 40
24.9999999999985683
210
0.0
220
-0.0000000000000002
230
-1.0
 50
154.9999999999998863
 51
180.0000000000007105
  0
LINE
  5
1546
  8
0
  6
CONTINUOUS
 62
     3
 10
-71.0000000000004547
 20
357.3952485374286994
 30
-0.0000000000000794
 11
-71.0000000000004547
 21
342.2332005306814153
 31
-0.000000000000076
210
0.0
220
1.0
230
-0.0000000000000002
  0
LINE
  5
1547
  8
0
  6
CONTINUOUS
 62
     3
 10
-189.0000000000003979
 20
357.3952485374286994
 30
-0.0000000000000794
 11
-189.0000000000003979
 21
342.2332005306814153
 31
-0.000000000000076
210
0.0
220
1.0
230
-0.0000000000000002
  0
ARC
  5
1548
  8
0
  6
CONTINUOUS
 62
     3
 10
163.9999999999947988
 20
342.2332005306827227
 30
0.0
 40
25.0000000000056311
210
0.0
220
-0.0000000000000002
230
-1.0
 50
333.111952382278389
 51
359.9999999999968168
  0
ARC
  5
1549
  8
0
  6
CONTINUOUS
 62
     3
 10
96.0000000000060822
 20
342.2332005306827227
 30
0.0
 40
25.0000000000056311
210
0.0
220
-0.0000000000000002
230
-1.0
 50
180.0000000000030127
 51
206.8880476177214973
  0
ARC
  5
154A
  8
0
  6
CONTINUOUS
 62
     3
 10
196.9999999999988916
 20
325.5000000000002842
 30
0.0
 40
11.9999999999984599
210
0.0
220
-0.0000000000000002
230
-1.0
 50
153.1119523822756889
 51
180.0000000000021032
  0
ARC
  5
154B
  8
0
  6
CONTINUOUS
 62
     3
 10
63.0000000000025011
 20
325.5000000000003979
 30
0.0
 40
11.9999999999979501
210
0.0
220
-0.0000000000000002
230
-1.0
 50
359.9999999999973284
 51
26.8880476177248617
  0
LINE
  5
154C
  8
0
  6
CONTINUOUS
 62
     3
 10
-75.0000000000004547
 20
325.4999999999998863
 30
-0.0000000000000723
 11
-75.0000000000004547
 21
306.9274888769472796
 31
-0.0000000000000682
210
0.0
220
1.0
230
-0.0000000000000002
  0
LINE
  5
154D
  8
0
  6
CONTINUOUS
 62
     3
 10
-185.0000000000003979
 20
325.4999999999998863
 30
-0.0000000000000723
 11
-185.0000000000003979
 21
306.9274888769472796
 31
-0.0000000000000682
210
0.0
220
1.0
230
-0.0000000000000002
  0
ARC
  5
154E
  8
0
  6
CONTINUOUS
 62
     3
 10
169.9999999999974989
 20
306.9274888769484164
 30
0.0
 40
15.0000000000029505
210
0.0
220
-0.0000000000000002
230
-1.0
 50
325.6988472432101958
 51
359.9999999999959073
  0
ARC
  5
154F
  8
0
  6
CONTINUOUS
 62
     3
 10
90.0000000000032827
 20
306.9274888769484164
 30
0.0
 40
15.0000000000028493
210
0.0
220
-0.0000000000000002
230
-1.0
 50
180.0000000000040075
 51
214.3011527567900032
  0
ARC
  5
1550
  8
0
  6
CONTINUOUS
 62
     3
 10
189.0000000000007958
 20
293.9660074801316796
 30
0.0
 40
8.0000000000003162
210
0.0
220
-0.0000000000000002
230
-1.0
 50
145.6988472432122137
 51
180.0000000000003979
  0
ARC
  5
1551
  8
0
  6
CONTINUOUS
 62
     3
 10
70.9999999999996874
 20
293.9660074801316227
 30
0.0
 40
8.0000000000007674
210
0.0
220
-0.0000000000000002
230
-1.0
 50
0.0000000000004071
 51
34.3011527567866565
  0
LINE
  5
1552
  8
0
  6
CONTINUOUS
 62
     3
 10
-79.0000000000004547
 20
293.9660074801316227
 30
-0.0000000000000653
 11
-79.0000000000004547
 21
282.9898987322334847
 31
-0.0000000000000628
210
0.0
220
1.0
230
-0.0000000000000002
  0
LINE
  5
1553
  8
0
  6
CONTINUOUS
 62
     3
 10
-181.0000000000003979
 20
293.9660074801316227
 30
-0.0000000000000653
 11
-181.0000000000003979
 21
282.9898987322334847
 31
-0.0000000000000628
210
0.0
220
1.0
230
-0.0000000000000002
  0
LINE
  5
1554
  8
0
  6
VERDECKT
 62
     1
 10
48.9999999999996803
 20
94.9999999999999147
 30
-0.0000000000000211
 11
48.9999999999998721
 21
12.0873218858199305
 31
-0.0000000000000027
210
0.0
220
1.0
230
-0.0000000000000002
  0
LINE
  5
1555
  8
0
  6
VERDECKT
 62
     1
 10
-49.0000000000000924
 20
95.0000000000000995
 30
-0.0000000000000211
 11
-48.9999999999999076
 21
12.0873218858197102
 31
-0.0000000000000027
210
0.0
220
1.0
230
-0.0000000000000002
  0
LINE
  5
1556
  8
0
  6
VERDECKT
 62
     1
 10
-47.9424963626023484
 20
-0.0000000000000853
 30
0.0
 11
-48.9999999999998792
 21
12.0873218858197102
 31
-0.0000000000000027
210
0.0
220
1.0
230
-0.0000000000000002
  0
LINE
  5
1557
  8
0
  6
VERDECKT
 62
     1
 10
47.9424963626023768
 20
0.0000000000001927
 30
0.0
 11
48.9999999999998579
 21
12.0873218858199305
 31
-0.0000000000000027
210
0.0
220
1.0
230
-0.0000000000000002
  0
ARC
  5
1558
  8
0
  6
VERDECKT
 62
     1
 10
59.9999999999989981
 20
282.9898987322342805
 30
0.0
 40
119.0000000000012932
210
0.0
220
-0.0000000000000002
230
-1.0
 50
315.0000000000006253
 51
359.9999999999996021
  0
ARC
  5
1559
  8
0
  6
VERDECKT
 62
     1
 10
-59.9999999999993534
 20
282.9898987322342236
 30
-0.0000000000000628
 40
21.0000000000010196
 50
180.0000000000021885
 51
225.0000000000009095
  0
LINE
  5
155A
  8
0
  6
VERDECKT
 62
     1
 10
-55.1507575950829221
 20
109.8492424049178027
 30
-0.0000000000000244
 11
-144.1457069611998918
 21
198.8441917710350992
 31
-0.0000000000000442
210
0.0
220
1.0
230
-0.0000000000000002
  0
LINE
  5
155B
  8
0
  6
VERDECKT
 62
     1
 10
14.1457069611997106
 20
179.1457069611984991
 30
-0.0000000000000398
 11
-74.8492424049172485
 21
268.1406563273158099
 31
-0.0000000000000595
210
0.0
220
1.0
230
-0.0000000000000002
  0
ARC
  5
155C
  8
0
  6
VERDECKT
 62
     1
 10
70.0000000000009521
 20
94.9999999999997584
 30
0.0
 40
119.0000000000007958
210
0.0
220
-0.0000000000000002
230
-1.0
 50
135.0000000000005969
 51
179.9999999999998863
  0
ARC
  5
155D
  8
0
  6
VERDECKT
 62
     1
 10
-70.0000000000009805
 20
94.9999999999996874
 30
-0.0000000000000211
 40
21.0000000000008704
 50
0.0000000000010559
 51
45.0000000000001705
  0
LINE
  5
155E
  8
0
  6
VERDECKT
 62
     1
 10
-76.5000000000004405
 20
369.9999999999998863
 30
-0.0000000000000822
 11
-75.8274604490789841
 21
368.5577342787325961
 31
-0.0000000000000818
210
0.0
220
1.0
230
-0.0000000000000002
  0
LINE
  5
155F
  8
0
  6
VERDECKT
 62
     1
 10
-183.5000000000005116
 20
369.9999999999997158
 30
-0.0000000000000822
 11
-184.172539550921897
 21
368.5577342787324255
 31
-0.0000000000000818
210
0.0
220
1.0
230
-0.0000000000000002
  0
ARC
  5
1560
  8
0
  6
VERDECKT
 62
     1
 10
163.5521705955050038
 20
357.3952485374290973
 30
0.0
 40
23.4478294044954509
210
0.0
220
-0.0000000000000002
230
-1.0
 50
359.9999999999989768
 51
28.4281446728266793
  0
ARC
  5
1561
  8
0
  6
VERDECKT
 62
     1
 10
96.4478294044965736
 20
357.3952485374289836
 30
0.0
 40
23.4478294044961508
210
0.0
220
-0.0000000000000002
230
-1.0
 50
151.5718553271734095
 51
180.000000000000199
  0
LINE
  5
1562
  8
0
  6
VERDECKT
 62
     1
 10
-73.0000000000002416
 20
357.3952485374289267
 30
-0.0000000000000794
 11
-73.0000000000002132
 21
342.2329999999998904
 31
-0.000000000000076
210
0.0
220
1.0
230
-0.0000000000000002
  0
LINE
  5
1563
  8
0
  6
VERDECKT
 62
     1
 10
-187.0000000000003979
 20
357.3952485374286994
 30
-0.0000000000000794
 11
-187.0000000000003979
 21
342.2329999999996062
 31
-0.000000000000076
210
0.0
220
1.0
230
-0.0000000000000002
  0
ARC
  5
1564
  8
0
  6
VERDECKT
 62
     1
 10
163.9999999999994031
 20
342.2330000000001746
 30
0.0
 40
23.0000000000010409
210
0.0
220
-0.0000000000000002
230
-1.0
 50
333.1119523822765132
 51
359.9999999999988063
  0
ARC
  5
1565
  8
0
  6
VERDECKT
 62
     1
 10
96.0000000000007248
 20
342.2330000000001746
 30
0.0
 40
23.0000000000005009
210
0.0
220
-0.0000000000000002
230
-1.0
 50
180.0000000000005969
 51
206.8880476177234868
  0
ARC
  5
1566
  8
0
  6
VERDECKT
 62
     1
 10
196.9999999999992042
 20
325.4997994693185888
 30
0.0
 40
13.9999999999987406
210
0.0
220
-0.0000000000000002
230
-1.0
 50
153.1119523822744952
 51
180.0000000000015064
  0
ARC
  5
1567
  8
0
  6
VERDECKT
 62
     1
 10
63.0000000000017835
 20
325.4997994693191004
 30
0.0
 40
13.9999999999984404
210
0.0
220
-0.0000000000000002
230
-1.0
 50
359.9999999999973852
 51
26.8880476177250998
  0
LINE
  5
1568
  8
0
  6
VERDECKT
 62
     1
 10
-77.0000000000002558
 20
325.4997994693184751
 30
-0.0000000000000723
 11
-77.000000000000199
 21
306.9274888769476206
 31
-0.0000000000000682
210
0.0
220
1.0
230
-0.0000000000000002
  0
LINE
  5
1569
  8
0
  6
VERDECKT
 62
     1
 10
-183.0000000000005116
 20
325.4997994693181909
 30
-0.0000000000000723
 11
-183.0000000000003979
 21
306.9274888769473932
 31
-0.0000000000000682
210
0.0
220
1.0
230
-0.0000000000000002
  0
ARC
  5
156A
  8
0
  6
VERDECKT
 62
     1
 10
170.0000000000040927
 20
306.9274888769463132
 30
0.0
 40
12.9999999999963904
210
0.0
220
-0.0000000000000002
230
-1.0
 50
325.698847243205023
 51
0.0000000000047772
  0
ARC
  5
156B
  8
0
  6
VERDECKT
 62
     1
 10
89.9999999999965326
 20
306.9274888769464837
 30
0.0
 40
12.9999999999963407
210
0.0
220
-0.0000000000000002
230
-1.0
 50
179.9999999999949978
 51
214.3011527567944938
  0
ARC
  5
156C
  8
0
  6
VERDECKT
 62
     1
 10
189.0
 20
293.9660074801316796
 30
0.0
 40
9.9999999999995612
210
0.0
220
-0.0000000000000002
230
-1.0
 50
145.6988472432049946
 51
180.0000000000005969
  0
ARC
  5
156D
  8
0
  6
VERDECKT
 62
     1
 10
71.0000000000002558
 20
293.9660074801320206
 30
0.0
 40
9.9999999999997708
210
0.0
220
-0.0000000000000002
230
-1.0
 50
359.9999999999989768
 51
34.3011527567937904
  0
LINE
  5
156E
  8
0
  6
VERDECKT
 62
     1
 10
-81.0000000000000142
 20
293.9660074801317933
 30
-0.0000000000000653
 11
-80.9999999999999858
 21
282.9898987322334278
 31
-0.0000000000000628
210
0.0
220
1.0
230
-0.0000000000000002
  0
LINE
  5
156F
  8
0
  6
VERDECKT
 62
     1
 10
-179.0000000000003979
 20
293.9660074801316227
 30
-0.0000000000000653
 11
-179.0000000000003979
 21
282.9898987322334278
 31
-0.0000000000000628
210
0.0
220
1.0
230
-0.0000000000000002
  0
ENDBLK
  5
1571
  8
0
  0
ENDSEC
  0
SECTION
  2
ENTITIES
  0
TEXT
  5
8F
  8
VOLL
 10
78.076754716981128
 20
31.025947764705851
 30
0.0
 40
1.8
  1

  7
GREEKS
  0
TEXT
  5
1165
  8
VOLL
 10
187.8080174622508878
 20
463.6279735983213186
 30
0.0
 40
1.8
  1

  7
GREEKS
  0
TEXT
  5
11AF
  8
VOLL
 10
893.7763998178960492
 20
463.6279735983213186
 30
0.0
 40
1.8
  1

  7
GREEKS
  0
INSERT
  5
1533
  8
0
  2
A$C140A4654
 10
-0.0000000000001137
 20
0.0000000000000167
 30
94.999999999999801
  0
INSERT
  5
1572
  8
0
  2
A$C16663478
 10
-0.0000000000003299
 20
108.3347701089572013
 30
94.999999999999801
  0
VIEWPORT
  5
131A
 67
     1
  8
0
 10
3.0996071016352591
 20
3.653022786082027
 30
0.0
 40
14.4440244034401903
 41
7.6721906811376623
 68
     1
 69
     1
1001
ACAD
1000
MVIEW
1002
{
1070
    16
1010
0.0
1020
0.0
1030
0.0
1010
0.0
1020
0.0
1030
1.0
1040
0.0
1040
7.6721906811376623
1040
3.0996071016352591
1040
3.653022786082027
1040
50.0
1040
0.0
1040
0.0
1070
     0
1070
  1500
1070
     1
1070
     1
1070
     0
1070
     0
1070
     0
1070
     0
1040
0.0
1040
0.0
1040
0.0
1040
10.0
1040
10.0
1040
10.0
1040
10.0
1070
     0
1002
{
1002
}
1002
}
  0
ENDSEC
  0
EOF
