  0
SECTION
  2
HEADER
  9
$ACADVER
  1
AC1009
  9
$INSBASE
 10
214.1896305907800127
 20
83.9878893283155321
 30
0.0
  9
$EXTMIN
 10
-203.7307298538939904
 20
-51.1389149196040833
 30
-0.0137318624343834
  9
$EXTMAX
 10
73.772519430326156
 20
590.8593898439617078
 30
0.0205998891273112
  9
$LIMMIN
 10
0.0
 20
0.0
  9
$LIMMAX
 10
840.0
 20
594.0
  9
$ORTHOMODE
 70
     1
  9
$REGENMODE
 70
     1
  9
$FILLMODE
 70
     1
  9
$QTEXTMODE
 70
     0
  9
$MIRRTEXT
 70
     1
  9
$DRAGMODE
 70
     2
  9
$LTSCALE
 40
20.0
  9
$OSMODE
 70
  1327
  9
$ATTMODE
 70
     1
  9
$TEXTSIZE
 40
3.5
  9
$TRACEWID
 40
1.0
  9
$TEXTSTYLE
  7
STANDARD
  9
$CLAYER
  8
0
  9
$CELTYPE
  6
BYLAYER
  9
$CECOLOR
 62
   256
  9
$DIMSCALE
 40
2.0
  9
$DIMASZ
 40
3.5
  9
$DIMEXO
 40
1.0
  9
$DIMDLI
 40
7.0
  9
$DIMRND
 40
0.0
  9
$DIMDLE
 40
0.0
  9
$DIMEXE
 40
1.0
  9
$DIMTP
 40
8.0
  9
$DIMTM
 40
8.0
  9
$DIMTXT
 40
3.5
  9
$DIMCEN
 40
1.5
  9
$DIMTSZ
 40
0.0
  9
$DIMTOL
 70
     0
  9
$DIMLIM
 70
     0
  9
$DIMTIH
 70
     0
  9
$DIMTOH
 70
     0
  9
$DIMSE1
 70
     0
  9
$DIMSE2
 70
     0
  9
$DIMTAD
 70
     1
  9
$DIMZIN
 70
     8
  9
$DIMBLK
  1

  9
$DIMASO
 70
     1
  9
$DIMSHO
 70
     0
  9
$DIMPOST
  1

  9
$DIMAPOST
  1

  9
$DIMALT
 70
     0
  9
$DIMALTD
 70
     2
  9
$DIMALTF
 40
25.3999999999999986
  9
$DIMLFAC
 40
1.0
  9
$DIMTOFL
 70
     1
  9
$DIMTVP
 40
0.2857142857142857
  9
$DIMTIX
 70
     0
  9
$DIMSOXD
 70
     0
  9
$DIMSAH
 70
     0
  9
$DIMBLK1
  1

  9
$DIMBLK2
  1

  9
$DIMSTYLE
  2
STANDARD
  9
$DIMCLRD
 70
     0
  9
$DIMCLRE
 70
     0
  9
$DIMCLRT
 70
     1
  9
$DIMTFAC
 40
0.5142857142857143
  9
$DIMGAP
 40
1.5
  9
$LUNITS
 70
     2
  9
$LUPREC
 70
     1
  9
$SKETCHINC
 40
1.0
  9
$FILLETRAD
 40
0.0
  9
$AUNITS
 70
     0
  9
$AUPREC
 70
     0
  9
$MENU
  1
ACAD
  9
$ELEVATION
 40
0.0
  9
$PELEVATION
 40
0.0
  9
$THICKNESS
 40
0.0
  9
$LIMCHECK
 70
     0
  9
$BLIPMODE
 70
     0
  9
$CHAMFERA
 40
0.0
  9
$CHAMFERB
 40
0.0
  9
$SKPOLY
 70
     0
  9
$TDCREATE
 40
2450051.4893055548891425
  9
$TDUPDATE
 40
2458383.3269444438628852
  9
$TDINDWG
 40
0.0789251157
  9
$TDUSRTIMER
 40
0.0789251157
  9
$USRTIMER
 70
     1
  9
$ANGBASE
 50
0.0
  9
$ANGDIR
 70
     0
  9
$PDMODE
 70
     0
  9
$PDSIZE
 40
0.0
  9
$PLINEWID
 40
0.0
  9
$COORDS
 70
     1
  9
$SPLFRAME
 70
     0
  9
$SPLINETYPE
 70
     6
  9
$SPLINESEGS
 70
     8
  9
$ATTDIA
 70
     0
  9
$ATTREQ
 70
     0
  9
$HANDLING
 70
     1
  9
$HANDSEED
  5
84F
  9
$SURFTAB1
 70
     6
  9
$SURFTAB2
 70
     6
  9
$SURFTYPE
 70
     6
  9
$SURFU
 70
     6
  9
$SURFV
 70
     6
  9
$UCSNAME
  2

  9
$UCSORG
 10
0.0
 20
0.0
 30
0.0
  9
$UCSXDIR
 10
1.0
 20
0.0
 30
0.0
  9
$UCSYDIR
 10
0.0
 20
1.0
 30
0.0
  9
$PUCSNAME
  2

  9
$PUCSORG
 10
0.0
 20
0.0
 30
0.0
  9
$PUCSXDIR
 10
1.0
 20
0.0
 30
0.0
  9
$PUCSYDIR
 10
0.0
 20
1.0
 30
0.0
  9
$USERI1
 70
     0
  9
$USERI2
 70
     0
  9
$USERI3
 70
     0
  9
$USERI4
 70
     0
  9
$USERI5
 70
     0
  9
$USERR1
 40
0.0
  9
$USERR2
 40
0.0
  9
$USERR3
 40
0.0
  9
$USERR4
 40
0.0
  9
$USERR5
 40
0.0
  9
$WORLDVIEW
 70
     1
  9
$SHADEDGE
 70
     3
  9
$SHADEDIF
 70
    70
  9
$TILEMODE
 70
     1
  9
$MAXACTVP
 70
    16
  9
$PLIMCHECK
 70
     0
  9
$PEXTMIN
 10
-0.1697695034531428
 20
-0.2191314470180572
 30
-0.0000000000000058
  9
$PEXTMAX
 10
10.6009516965395392
 20
7.4616849852814218
 30
0.0000000000000104
  9
$PLIMMIN
 10
-0.2500002402958907
 20
-0.2499999962453767
  9
$PLIMMAX
 10
10.7499995194082203
 20
8.2499997634587334
  9
$UNITMODE
 70
     0
  9
$VISRETAIN
 70
     0
  9
$PLINEGEN
 70
     0
  9
$PSLTSCALE
 70
     0
  0
ENDSEC
  0
SECTION
  2
TABLES
  0
TABLE
  2
VPORT
 70
     1
  0
VPORT
  2
*ACTIVE
 70
     0
 10
0.0
 20
0.0
 11
1.0
 21
1.0
 12
3.3208978399737812
 22
70.4102366992393627
 13
0.0
 23
0.0
 14
2.5
 24
2.5
 15
10.0
 25
10.0
 16
-0.0000000000004121
 26
0.0
 36
1837.196960791849051
 17
-68.3000030517577841
 27
199.4500007629393963
 37
225.0
 40
646.8012845997020577
 41
1.8826466916354549
 42
50.0
 43
0.0
 44
0.0
 50
0.0
 51
0.0
 71
     0
 72
   500
 73
     1
 74
     0
 75
     0
 76
     0
 77
     0
 78
     0
  0
ENDTAB
  0
TABLE
  2
LTYPE
 70
     3
  0
LTYPE
  2
CONTINUOUS
 70
     0
  3
Solid line
 72
    65
 73
     0
 40
0.0
  0
LTYPE
  2
VERDECKT
 70
     0
  3
Verdeckt __ __ __ __ __ __ __ __ __ __ __ __ __
 72
    65
 73
     2
 40
0.375
 49
0.25
 49
-0.125
  0
ENDTAB
  0
TABLE
  2
LAYER
 70
    10
  0
LAYER
  2
0
 70
     0
 62
     7
  6
CONTINUOUS
  0
LAYER
  2
VOLL
 70
     0
 62
     1
  6
CONTINUOUS
  0
LAYER
  2
BEM
 70
     0
 62
     7
  6
CONTINUOUS
  0
LAYER
  2
DEFPOINTS
 70
     0
 62
     7
  6
CONTINUOUS
  0
LAYER
  2
TEXT
 70
     0
 62
     7
  6
CONTINUOUS
  0
ENDTAB
  0
TABLE
  2
STYLE
 70
     4
  0
STYLE
  2
STANDARD
 70
     0
 40
0.0
 41
0.8
 50
0.0
 71
     0
 42
3.5
  3
simplex.shx
  4

  0
STYLE
  2
GREEKS
 70
     0
 40
0.0
 41
0.8
 50
0.0
 71
     0
 42
3.5
  3
SIMPLEX.shx
  4

  0
ENDTAB
  0
TABLE
  2
VIEW
 70
     2
  0
ENDTAB
  0
TABLE
  2
UCS
 70
     0
  0
ENDTAB
  0
TABLE
  2
APPID
 70
    13
  0
APPID
  2
ACAD
 70
     0
  0
APPID
  2
ACAECLAYERSTANDARD
 70
     0
  0
APPID
  2
ACCMTRANSPARENCY
 70
     0
  0
APPID
  2
ACAD_DSTYLE_DIMJAG
 70
     0
  0
APPID
  2
ACAD_DSTYLE_DIMTALN
 70
     0
  0
APPID
  2
ACAD_NAV_VCDISPLAY
 70
     0
  0
APPID
  2
ACAD_PSEXT
 70
     0
  0
APPID
  2
ACAD_EXEMPT_FROM_CAD_STANDARDS
 70
     0
  0
APPID
  2
ACAD_MLEADERVER
 70
     0
  0
APPID
  2
GRADIENTCOLOR1ACI
 70
     0
  0
APPID
  2
GRADIENTCOLOR2ACI
 70
     0
  0
APPID
  2
ACADANNOMONITORALERTICONDI
 70
     0
  0
APPID
  2
ACAD_OBJECT_CHANGE_GUID
 70
     0
  0
ENDTAB
  0
TABLE
  2
DIMSTYLE
 70
     2
  0
DIMSTYLE
  2
STANDARD
 70
     0
  3

  4

  5

  6

  7

 40
1.0
 41
0.18
 42
0.0625
 43
0.38
 44
0.18
 45
0.0
 46
0.0
 47
0.0
 48
0.0
140
0.18
141
0.09
142
0.0
143
25.3999999999999986
144
1.0
145
0.0
146
1.0
147
0.09
 71
     0
 72
     0
 73
     1
 74
     1
 75
     0
 76
     0
 77
     0
 78
     0
170
     0
171
     2
172
     0
173
     0
174
     0
175
     0
176
     0
177
     0
178
     0
  0
ENDTAB
  0
ENDSEC
  0
SECTION
  2
BLOCKS
  0
BLOCK
  8
0
  2
$MODEL_SPACE
 70
     0
 10
0.0
 20
0.0
 30
0.0
  3
$MODEL_SPACE
  1

  0
ENDBLK
  5
4F
  8
0
  0
BLOCK
 67
     1
  8
0
  2
$PAPER_SPACE
 70
     0
 10
0.0
 20
0.0
 30
0.0
  3
$PAPER_SPACE
  1

  0
ENDBLK
  5
4D
 67
     1
  8
0
  0
BLOCK
  8
0
  2
A$C02973E26
 70
     0
 10
0.0
 20
0.0
 30
0.0
  3
A$C02973E26
  1

  0
ARC
  5
7A1
  8
0
  6
CONTINUOUS
 62
     3
 10
-0.00000000000004
 20
0.0
 30
0.0
 40
44.5
 50
270.0
 51
89.9999999999999858
  0
CIRCLE
  5
7A2
  8
0
  6
CONTINUOUS
 62
     3
 10
-129.999999999999801
 20
0.0
 30
-0.0000000000000568
 40
42.8999999999999773
  0
CIRCLE
  5
7A3
  8
0
  6
CONTINUOUS
 62
     3
 10
-129.999999999999801
 20
0.0
 30
-0.0000000000000568
 40
45.9999999999998579
  0
CIRCLE
  5
7A4
  8
0
  6
CONTINUOUS
 62
     3
 10
-129.999999999999801
 20
0.0
 30
-0.0000000000000568
 40
51.1000000000000227
  0
CIRCLE
  5
7A5
  8
0
  6
CONTINUOUS
 62
     3
 10
-129.999999999999801
 20
0.0
 30
-0.0000000000000568
 40
47.7042173834487926
  0
LINE
  5
7A6
  8
0
  6
CONTINUOUS
 62
     3
 10
-102.391084906826805
 20
44.5
 30
-0.0000000000000284
 11
-104.8809767347406989
 21
44.5
 31
0.0
  0
LINE
  5
7A7
  8
0
  6
CONTINUOUS
 62
     3
 10
-104.8809767347406989
 20
-44.5
 30
0.0
 11
-102.3910849068267055
 21
-44.5
 31
-0.0000000000000284
  0
LINE
  5
7A8
  8
0
  6
CONTINUOUS
 62
     3
 10
-27.6089150931715288
 20
-44.5
 30
0.0
 11
-102.391084906826805
 21
-44.5
 31
-0.0000000000000142
  0
LINE
  5
7A9
  8
0
  6
CONTINUOUS
 62
     3
 10
-27.6089150931715288
 20
44.5
 30
0.0
 11
-102.391084906826805
 21
44.5
 31
-0.0000000000000142
  0
LINE
  5
7AA
  8
0
  6
CONTINUOUS
 62
     3
 10
-27.6089150931713299
 20
-44.5
 30
0.0
 11
-0.0000000000000391
 21
-44.5
 31
0.0
  0
LINE
  5
7AB
  8
0
  6
CONTINUOUS
 62
     3
 10
-0.00000000000004
 20
44.5
 30
0.0
 11
-27.6089150931713689
 21
44.5
 31
0.0
  0
CIRCLE
  5
7AC
  8
0
  6
CONTINUOUS
 62
     3
 10
-129.999999999999801
 20
0.0
 30
-0.0000000000000568
 40
51.10005215066451
  0
CIRCLE
  5
7AD
  8
0
  6
VERDECKT
 62
     1
 10
0.0
 20
0.0
 30
0.0
 40
42.0190016246714606
  0
CIRCLE
  5
7AE
  8
0
  6
VERDECKT
 62
     1
 10
0.0000000000000737
 20
0.0
 30
0.0
 40
42.8999999999999986
  0
CIRCLE
  5
7AF
  8
0
  6
VERDECKT
 62
     1
 10
0.0
 20
0.0
 30
0.0
 40
43.6251133647407272
  0
ARC
  5
7B0
  8
0
  6
VERDECKT
 62
     1
 10
0.0000000000000168
 20
0.0000000000000568
 30
0.0
 40
44.5000000000000497
 50
180.0000000000001137
 51
269.9999999999998863
  0
ARC
  5
7B1
  8
0
  6
VERDECKT
 62
     1
 10
0.0000000000000168
 20
-0.000000000000048
 30
0.0
 40
44.5000000000000497
 50
90.0000000000000711
 51
179.9999999999998863
  0
CIRCLE
  5
7B2
  8
0
  6
VERDECKT
 62
     1
 10
-129.999999999999801
 20
0.0
 30
-0.0000000000000568
 40
49.5000059675378523
  0
CIRCLE
  5
7B3
  8
0
  6
VERDECKT
 62
     1
 10
-129.999999999999801
 20
0.0
 30
-0.0000000000000568
 40
49.4999999999914735
  0
CIRCLE
  5
7B4
  8
0
  6
VERDECKT
 62
     1
 10
-129.999999999999801
 20
0.0
 30
-0.0000000000000568
 40
44.5
  0
CIRCLE
  5
7B5
  8
0
  6
VERDECKT
 62
     1
 10
-129.999999999999801
 20
0.0
 30
-0.0000000000000568
 40
47.6000000000000725
  0
LINE
  5
7B6
  8
0
  6
VERDECKT
 62
     1
 10
-102.3910849068262934
 20
42.8999999999999986
 30
-0.0000000000000284
 11
-130.0
 21
42.8999999999999986
 31
-0.0000000000000568
  0
LINE
  5
7B7
  8
0
  6
VERDECKT
 62
     1
 10
-129.9999999999998863
 20
-42.8999999999999986
 30
-0.0000000000000568
 11
-102.3910849068262934
 21
-42.8999999999999986
 31
-0.0000000000000284
  0
LINE
  5
7B8
  8
0
  6
VERDECKT
 62
     1
 10
-27.6089150931711309
 20
-42.8999999999999915
 30
0.0
 11
-102.3910849068262934
 21
-42.8999999999999915
 31
-0.0000000000000142
  0
LINE
  5
7B9
  8
0
  6
VERDECKT
 62
     1
 10
-27.6089150931711309
 20
42.8999999999999915
 30
0.0
 11
-102.3910849068262934
 21
42.8999999999999915
 31
-0.0000000000000142
  0
LINE
  5
7BA
  8
0
  6
VERDECKT
 62
     1
 10
-27.6089150931713085
 20
-42.8999999999999986
 30
0.0
 11
0.0000000000000462
 21
-42.8999999999999986
 31
0.0
  0
LINE
  5
7BB
  8
0
  6
VERDECKT
 62
     1
 10
0.0000000000000737
 20
42.8999999999999986
 30
0.0
 11
-27.6089150931713299
 21
42.8999999999999986
 31
0.0
  0
LINE
  5
7BC
  8
0
  6
VERDECKT
 62
     1
 10
-104.8809767347406989
 20
44.5
 30
0.0
 11
-130.0000000000005969
 21
44.5
 31
-0.0000000000000568
  0
LINE
  5
7BD
  8
0
  6
VERDECKT
 62
     1
 10
-130.0000000000005116
 20
-44.5
 30
-0.0000000000000568
 11
-104.8809767347406989
 21
-44.5
 31
0.0
  0
ENDBLK
  5
7BF
  8
0
  0
BLOCK
  8
0
  2
A$C59D73FF7
 70
     0
 10
0.0
 20
0.0
 30
0.0
  3
A$C59D73FF7
  1

  0
LINE
  5
7C3
  8
0
  6
CONTINUOUS
 62
     3
 10
43.6251133647407272
 20
-0.0000000000000053
 30
0.0
 11
-43.6251133647407272
 21
0.0000000000000053
 31
0.0
210
0.0
220
1.0
230
-0.0000000000000002
  0
LINE
  5
7C4
  8
0
  6
CONTINUOUS
 62
     3
 10
-82.2957826165511506
 20
450.0
 30
-0.0000000000000999
 11
-177.7042173834487073
 21
450.0
 31
-0.0000000000000999
210
0.0
220
1.0
230
-0.0000000000000002
  0
LINE
  5
7C5
  8
0
  6
CONTINUOUS
 62
     3
 10
-43.6251133647407272
 20
0.0000000000000009
 30
0.0
 11
-44.5
 21
10.0
 31
-0.0000000000000022
210
0.0
220
1.0
230
-0.0000000000000002
  0
LINE
  5
7C6
  8
0
  6
CONTINUOUS
 62
     3
 10
43.6251133647407272
 20
-0.0000000000000053
 30
0.0
 11
44.5
 21
9.9999999999999964
 31
-0.0000000000000022
210
0.0
220
1.0
230
-0.0000000000000002
  0
LINE
  5
7C7
  8
0
  6
CONTINUOUS
 62
     3
 10
-44.4999999999999432
 20
10.0
 30
-0.0000000000000022
 11
-44.4999999999999289
 21
75.000000000000469
 31
-0.0000000000000167
210
0.0
220
1.0
230
-0.0000000000000002
  0
LINE
  5
7C8
  8
0
  6
CONTINUOUS
 62
     3
 10
44.4999999999999289
 20
9.9999999999999947
 30
-0.0000000000000022
 11
44.4999999999999432
 21
74.9999999999995026
 31
-0.0000000000000167
210
0.0
220
1.0
230
-0.0000000000000002
  0
ARC
  5
7C9
  8
0
  6
CONTINUOUS
 62
     3
 10
-3.5000000000006248
 20
335.0000000000010232
 30
0.0
 40
178.0000000000013074
210
0.0
220
-0.0000000000000002
230
-1.0
 50
322.4847843077930065
 51
359.9999999999997158
  0
ARC
  5
7CA
  8
0
  6
CONTINUOUS
 62
     3
 10
3.5000000000006248
 20
335.0000000000010232
 30
-0.0000000000000744
 40
89.000000000001279
 50
180.0000000000005969
 51
217.515215692207704
  0
LINE
  5
7CB
  8
0
  6
CONTINUOUS
 62
     3
 10
-62.9059433954474585
 20
129.1985163276004869
 30
-0.0000000000000287
 11
-137.6881132091027951
 21
226.6029673447947062
 31
-0.0000000000000503
210
0.0
220
1.0
230
-0.0000000000000002
  0
LINE
  5
7CC
  8
0
  6
CONTINUOUS
 62
     3
 10
7.6881132091043991
 20
183.3970326552023948
 30
-0.0000000000000407
 11
-67.0940566045509286
 21
280.8014836723966141
 31
-0.0000000000000624
210
0.0
220
1.0
230
-0.0000000000000002
  0
ARC
  5
7CD
  8
0
  6
CONTINUOUS
 62
     3
 10
133.4999999999957936
 20
75.0000000000013074
 30
0.0
 40
177.9999999999957936
210
0.0
220
-0.0000000000000002
230
-1.0
 50
142.4847843077936886
 51
180.0000000000005116
  0
ARC
  5
7CE
  8
0
  6
CONTINUOUS
 62
     3
 10
-133.4999999999955946
 20
75.0000000000013927
 30
-0.0000000000000167
 40
88.9999999999955662
 50
359.9999999999993747
 51
37.5152156922063398
  0
LINE
  5
7CF
  8
0
  6
CONTINUOUS
 62
     3
 10
-174.5
 20
335.0
 30
-0.0000000000000744
 11
-174.5
 21
384.69340033543142
 31
-0.0000000000000854
210
0.0
220
1.0
230
-0.0000000000000002
  0
LINE
  5
7D0
  8
0
  6
CONTINUOUS
 62
     3
 10
-85.5
 20
335.0
 30
-0.0000000000000744
 11
-85.5
 21
384.69340033543142
 31
-0.0000000000000854
210
0.0
220
1.0
230
-0.0000000000000002
  0
ARC
  5
7D1
  8
0
  6
CONTINUOUS
 62
     3
 10
77.49999999999919
 20
384.69340033543142
 30
0.0
 40
8.0000000000007532
210
0.0
220
-0.0000000000000002
230
-1.0
 50
0.0000000000004071
 51
32.3280641221623668
  0
ARC
  5
7D2
  8
0
  6
CONTINUOUS
 62
     3
 10
182.5000000000007105
 20
384.69340033543142
 30
0.0
 40
8.0000000000007407
210
0.0
220
-0.0000000000000002
230
-1.0
 50
147.6719358778375977
 51
179.9999999999996021
  0
ARC
  5
7D3
  8
0
  6
CONTINUOUS
 62
     3
 10
94.399999999997533
 20
395.3887264174164784
 30
0.0
 40
11.9999999999976801
210
0.0
220
-0.0000000000000002
230
-1.0
 50
179.9999999999967031
 51
212.3280641221645055
  0
ARC
  5
7D4
  8
0
  6
CONTINUOUS
 62
     3
 10
165.6000000000022965
 20
395.3887264174164784
 30
0.0
 40
11.9999999999976907
210
0.0
220
-0.0000000000000002
230
-1.0
 50
327.6719358778353808
 51
0.0000000000032696
  0
LINE
  5
7D5
  8
0
  6
CONTINUOUS
 62
     3
 10
-177.5999999999999943
 20
395.3887264174172174
 30
-0.0000000000000878
 11
-177.5999999999999943
 21
414.6598669368048036
 31
-0.0000000000000921
210
0.0
220
1.0
230
-0.0000000000000002
  0
LINE
  5
7D6
  8
0
  6
CONTINUOUS
 62
     3
 10
-82.3999999999998636
 20
395.3887264174172174
 30
-0.0000000000000878
 11
-82.3999999999998636
 21
414.6598669368048036
 31
-0.0000000000000921
210
0.0
220
1.0
230
-0.0000000000000002
  0
ARC
  5
7D7
  8
0
  6
CONTINUOUS
 62
     3
 10
70.4000000000012562
 20
414.6598669368050878
 30
0.0
 40
11.9999999999986002
210
0.0
220
-0.0000000000000002
230
-1.0
 50
359.9999999999985789
 51
25.3077230979287293
  0
ARC
  5
7D8
  8
0
  6
CONTINUOUS
 62
     3
 10
189.5999999999986017
 20
414.6598669368050878
 30
0.0
 40
11.9999999999985896
210
0.0
220
-0.0000000000000002
230
-1.0
 50
154.6922769020713133
 51
180.0000000000013074
  0
ARC
  5
7D9
  8
0
  6
CONTINUOUS
 62
     3
 10
103.368297221020498
 20
430.2493468589099734
 30
0.0
 40
24.4683493716850897
210
0.0
220
-0.0000000000000002
230
-1.0
 50
179.8817052980448068
 51
205.3077230979286867
  0
ARC
  5
7DA
  8
0
  6
CONTINUOUS
 62
     3
 10
156.6317027789785072
 20
430.2493468589102008
 30
0.0
 40
24.4683493716859211
210
0.0
220
-0.0000000000000002
230
-1.0
 50
334.692276902071626
 51
0.1182947019546164
  0
LINE
  5
7DB
  8
0
  6
CONTINUOUS
 62
     3
 10
-181.0999999999999091
 20
430.2998649610192956
 30
-0.0000000000000955
 11
-181.0999999999999091
 21
437.3952485374289836
 31
-0.0000000000000971
210
0.0
220
1.0
230
-0.0000000000000002
  0
LINE
  5
7DC
  8
0
  6
CONTINUOUS
 62
     3
 10
-78.8999999999999631
 20
430.2998649610192956
 30
-0.0000000000000955
 11
-78.8999999999999631
 21
437.3952485374289836
 31
-0.0000000000000971
210
0.0
220
1.0
230
-0.0000000000000002
  0
ARC
  5
7DD
  8
0
  6
CONTINUOUS
 62
     3
 10
103.7632004381184032
 20
437.3952485374289267
 30
0.0
 40
24.8632004381184899
210
0.0
220
-0.0000000000000002
230
-1.0
 50
152.4479447706546864
 51
179.9999999999998863
  0
ARC
  5
7DE
  8
0
  6
CONTINUOUS
 62
     3
 10
156.2367995618816963
 20
437.3952485374289836
 30
0.0
 40
24.8632004381182696
210
0.0
220
-0.0000000000000002
230
-1.0
 50
0.0
 51
27.5520552293453989
  0
LINE
  5
7DF
  8
0
  6
CONTINUOUS
 62
     3
 10
-82.2957826165511506
 20
450.0
 30
-0.0000000000000999
 11
-81.7197118842792634
 21
448.8958288881249814
 31
-0.0000000000000997
210
0.0
220
1.0
230
-0.0000000000000002
  0
LINE
  5
7E0
  8
0
  6
CONTINUOUS
 62
     3
 10
-177.7042173834487073
 20
450.0
 30
-0.0000000000000999
 11
-178.2802881157205945
 21
448.8958288881249814
 31
-0.0000000000000997
210
0.0
220
1.0
230
-0.0000000000000002
  0
LINE
  5
7E1
  8
0
  6
VERDECKT
 62
     1
 10
-42.0190016246714606
 20
-0.0000000000000036
 30
0.0
 11
-42.9000000000000625
 21
10.5698575086535094
 31
-0.0000000000000023
210
0.0
220
1.0
230
-0.0000000000000002
  0
LINE
  5
7E2
  8
0
  6
VERDECKT
 62
     1
 10
42.0190016246714606
 20
-0.0000000000000062
 30
0.0
 11
42.9000000000000625
 21
10.5698575086535094
 31
-0.0000000000000023
210
0.0
220
1.0
230
-0.0000000000000002
  0
LINE
  5
7E3
  8
0
  6
VERDECKT
 62
     1
 10
-42.8999999999999773
 20
10.5698575086535094
 30
-0.0000000000000023
 11
-42.8999999999999702
 21
75.000000000000469
 31
-0.0000000000000167
210
0.0
220
1.0
230
-0.0000000000000002
  0
LINE
  5
7E4
  8
0
  6
VERDECKT
 62
     1
 10
42.8999999999999702
 20
10.5698575086535094
 30
-0.0000000000000023
 11
42.8999999999999773
 21
74.9999999999995026
 31
-0.0000000000000167
210
0.0
220
1.0
230
-0.0000000000000002
  0
ARC
  5
7E5
  8
0
  6
VERDECKT
 62
     1
 10
-3.500000000000937
 20
335.0000000000010232
 30
0.0
 40
176.4000000000010004
210
0.0
220
-0.0000000000000002
230
-1.0
 50
322.4847843077931202
 51
359.9999999999997158
  0
ARC
  5
7E6
  8
0
  6
VERDECKT
 62
     1
 10
3.500000000000127
 20
335.0000000000006821
 30
-0.0000000000000744
 40
90.6000000000001364
 50
180.0000000000003979
 51
217.515215692207704
  0
LINE
  5
7E7
  8
0
  6
VERDECKT
 62
     1
 10
-61.6368367598595484
 20
130.17287167731061
 30
-0.0000000000000289
 11
-136.4190065735149062
 21
227.5773226945048009
 31
-0.0000000000000505
210
0.0
220
1.0
230
-0.0000000000000002
  0
LINE
  5
7E8
  8
0
  6
VERDECKT
 62
     1
 10
6.4190065735173212
 20
182.4226773054930959
 30
-0.0000000000000405
 11
-68.3631632401378511
 21
279.8271283226870878
 31
-0.0000000000000621
210
0.0
220
1.0
230
-0.0000000000000002
  0
ARC
  5
7E9
  8
0
  6
VERDECKT
 62
     1
 10
133.4999999999959925
 20
75.0000000000013927
 30
0.0
 40
176.3999999999959982
210
0.0
220
-0.0000000000000002
230
-1.0
 50
142.4847843077936886
 51
180.0000000000005116
  0
ARC
  5
7EA
  8
0
  6
VERDECKT
 62
     1
 10
-133.4999999999955946
 20
75.0000000000015632
 30
-0.0000000000000167
 40
90.5999999999956742
 50
359.9999999999992042
 51
37.5152156922062474
  0
ARC
  5
7EB
  8
0
  6
VERDECKT
 62
     1
 10
77.5000000000018332
 20
384.6934003354318179
 30
0.0
 40
9.5999999999981327
210
0.0
220
-0.0000000000000002
230
-1.0
 50
359.9999999999980105
 51
32.3280641221684206
  0
ARC
  5
7EC
  8
0
  6
VERDECKT
 62
     1
 10
182.4999999999980105
 20
384.6934003354318179
 30
0.0
 40
9.5999999999981185
210
0.0
220
-0.0000000000000002
230
-1.0
 50
147.6719358778316007
 51
180.0000000000019895
  0
ARC
  5
7ED
  8
0
  6
VERDECKT
 62
     1
 10
94.3999999999955435
 20
395.3887264174156257
 30
0.0
 40
10.3999999999956092
210
0.0
220
-0.0000000000000002
230
-1.0
 50
179.9999999999911893
 51
212.3280641221672056
  0
ARC
  5
7EE
  8
0
  6
VERDECKT
 62
     1
 10
165.600000000004286
 20
395.3887264174156257
 30
0.0
 40
10.3999999999956092
210
0.0
220
-0.0000000000000002
230
-1.0
 50
327.6719358778328228
 51
0.0000000000087783
  0
LINE
  5
7EF
  8
0
  6
VERDECKT
 62
     1
 10
-175.9999999999998863
 20
395.3887264174172174
 30
-0.0000000000000878
 11
-175.9999999999998863
 21
414.6598669368048036
 31
-0.0000000000000921
210
0.0
220
1.0
230
-0.0000000000000002
  0
LINE
  5
7F0
  8
0
  6
VERDECKT
 62
     1
 10
-83.9999999999999432
 20
395.3887264174172174
 30
-0.0000000000000878
 11
-83.9999999999999432
 21
414.6598669368048036
 31
-0.0000000000000921
210
0.0
220
1.0
230
-0.0000000000000002
  0
ARC
  5
7F1
  8
0
  6
VERDECKT
 62
     1
 10
70.4001737080868253
 20
414.6598669368044057
 30
0.0
 40
13.5998262919131196
210
0.0
220
-0.0000000000000002
230
-1.0
 50
0.0000000000019211
 51
24.9690332496788514
  0
ARC
  5
7F2
  8
0
  6
VERDECKT
 62
     1
 10
189.599826291912791
 20
414.6598669368044057
 30
0.0
 40
13.59982629191291
210
0.0
220
-0.0000000000000002
230
-1.0
 50
155.0309667503209141
 51
179.9999999999982947
  0
ARC
  5
7F3
  8
0
  6
VERDECKT
 62
     1
 10
104.3480906877849037
 20
430.4677087215345068
 30
0.0
 40
23.8481233068504217
210
0.0
220
-0.0000000000000002
230
-1.0
 50
180.0856587276645087
 51
204.9690332496797112
  0
ARC
  5
7F4
  8
0
  6
VERDECKT
 62
     1
 10
155.6519093122149116
 20
430.4677087215346205
 30
0.0
 40
23.8481233068504288
210
0.0
220
-0.0000000000000002
230
-1.0
 50
335.0309667503200899
 51
359.9143412723353777
  0
LINE
  5
7F5
  8
0
  6
VERDECKT
 62
     1
 10
-179.5000029837646025
 20
430.4320551506078232
 30
-0.0000000000000956
 11
-179.5000029837646025
 21
437.3952682486689127
 31
-0.0000000000000971
210
0.0
220
1.0
230
-0.0000000000000002
  0
LINE
  5
7F6
  8
0
  6
VERDECKT
 62
     1
 10
-80.4999970162352838
 20
430.4320551506078232
 30
-0.0000000000000956
 11
-80.4999970162352838
 21
437.3952682486689127
 31
-0.0000000000000971
210
0.0
220
1.0
230
-0.0000000000000002
  0
ARC
  5
7F7
  8
0
  6
VERDECKT
 62
     1
 10
103.947830919678097
 20
437.3952481536327923
 30
0.0
 40
23.4478309196783208
210
0.0
220
-0.0000000000000002
230
-1.0
 50
151.5718562649948069
 51
179.9999508969183069
  0
ARC
  5
7F8
  8
0
  6
VERDECKT
 62
     1
 10
156.0521690803213062
 20
437.3952481536327923
 30
0.0
 40
23.44783091967874
210
0.0
220
-0.0000000000000002
230
-1.0
 50
0.0000491030817674
 51
28.4281437350046993
  0
LINE
  5
7F9
  8
0
  6
VERDECKT
 62
     1
 10
-84.0000000000000853
 20
450.0000000000002842
 30
-0.0000000000000999
 11
-83.3274604490785862
 21
448.5577342787327098
 31
-0.0000000000000996
210
0.0
220
1.0
230
-0.0000000000000002
  0
LINE
  5
7FA
  8
0
  6
VERDECKT
 62
     1
 10
-175.999999999999801
 20
450.0000000000002842
 30
-0.0000000000000999
 11
-176.6725395509213001
 21
448.5577342787327098
 31
-0.0000000000000996
210
0.0
220
1.0
230
-0.0000000000000002
  0
LINE
  5
7FB
  8
0
  6
VERDECKT
 62
     1
 10
-172.9000000000000057
 20
335.0
 30
-0.0000000000000744
 11
-172.9000000000000057
 21
384.69340033543142
 31
-0.0000000000000854
210
0.0
220
1.0
230
-0.0000000000000002
  0
LINE
  5
7FC
  8
0
  6
VERDECKT
 62
     1
 10
-87.1000000000000227
 20
335.0
 30
-0.0000000000000744
 11
-87.1000000000000227
 21
384.69340033543142
 31
-0.0000000000000854
210
0.0
220
1.0
230
-0.0000000000000002
  0
ENDBLK
  5
7FE
  8
0
  0
ENDSEC
  0
SECTION
  2
ENTITIES
  0
TEXT
  5
144
  8
VOLL
 10
359.1360264879136253
 20
32.2037217760458034
 30
0.0
 40
1.8
  1

  7
GREEKS
  0
TEXT
  5
145
  8
TEXT
 10
690.9682946915064576
 20
37.7619573092713381
 30
0.0
 40
2.5
  1
  
  7
GREEKS
 72
     1
 11
693.2301994534113874
 21
37.7619573092713381
 31
0.0
  0
TEXT
  5
146
  8
BEM
 10
935.0880120039885242
 20
173.3208393396735119
 30
0.0
 40
2.5
  1
 
 72
     4
 11
936.2189643849410459
 21
173.3208393396735119
 31
0.0
  0
TEXT
  5
148
  8
BEM
 10
514.2756286447093999
 20
52.5371326657223392
 30
0.0
 40
2.5
  1

  7
GREEKS
  0
TEXT
  5
149
  8
VOLL
 10
500.2094356249879752
 20
32.3538720086872402
 30
0.0
 40
1.8
  1

  7
GREEKS
  0
TEXT
  5
14A
  8
BEM
 10
534.6975004642727072
 20
37.0795963319078368
 30
0.0
 40
2.5
  1

 41
0.8
  7
GREEKS
  0
TEXT
  5
14B
  8
BEM
 10
534.6975004642727072
 20
32.3858277778556811
 30
0.0
 40
2.5
  1

 41
0.8
  7
GREEKS
  0
TEXT
  5
14C
  8
BEM
 10
534.6975004642727072
 20
27.1479839591921888
 30
0.0
 40
2.5
  1

 41
0.8
  7
GREEKS
  0
TEXT
  5
14D
  8
BEM
 10
534.6245559868981445
 20
22.6427950090945593
 30
0.0
 40
1.8
  1

 41
0.8
  7
GREEKS
  0
TEXT
  5
14E
  8
BEM
 10
521.9409851072870197
 20
48.2343841053198403
 30
0.0
 40
2.0
  1

 41
0.8
  7
GREEKS
 72
     1
 11
521.9409851072870197
 21
48.2343841053198403
 31
0.0
  0
TEXT
  5
14F
  8
TEXT
 10
832.0417038285810349
 20
37.912107541912782
 30
0.0
 40
2.5
  1
  
  7
GREEKS
 72
     1
 11
834.303608590485851
 21
37.912107541912782
 31
0.0
  0
TEXT
  5
150
  8
BEM
 10
1076.1614211410631015
 20
173.4709895723150055
 30
0.0
 40
2.5
  1
 
 72
     4
 11
1077.292373522014941
 21
173.4709895723150055
 31
0.0
  0
TEXT
  5
154
  8
VOLL
 10
455.0275751403322033
 20
189.1479780847651
 30
0.0
 40
1.8
  1

  7
GREEKS
  0
TEXT
  5
155
  8
TEXT
 10
786.8598433439251494
 20
194.7062136179906133
 30
0.0
 40
2.5
  1
  
  7
GREEKS
 72
     1
 11
789.1217481058299654
 21
194.7062136179906133
 31
0.0
  0
TEXT
  5
156
  8
BEM
 10
1030.9795606564071022
 20
330.2650956483927871
 30
0.0
 40
2.5
  1
 
 72
     4
 11
1032.1105130373589418
 21
330.2650956483927871
 31
0.0
  0
TEXT
  5
157
  8
VOLL
 10
612.5622922174937912
 20
194.7035337198362868
 30
0.0
 40
1.8
  1

  7
GREEKS
  0
TEXT
  5
158
  8
BEM
 10
647.0503570567783527
 20
199.4292580430569046
 30
0.0
 40
2.5
  1

 41
0.8
  7
GREEKS
  0
TEXT
  5
159
  8
BEM
 10
647.0503570567783527
 20
194.7354894890046921
 30
0.0
 40
2.5
  1

 41
0.8
  7
GREEKS
  0
TEXT
  5
15A
  8
BEM
 10
647.0503570567783527
 20
189.4976456703411998
 30
0.0
 40
2.5
  1

 41
0.8
  7
GREEKS
  0
TEXT
  5
15B
  8
BEM
 10
646.9774125794040174
 20
184.9924567202436094
 30
0.0
 40
1.8
  1

 41
0.8
  7
GREEKS
  0
TEXT
  5
15C
  8
TEXT
 10
944.3945604210866804
 20
200.2617692530618001
 30
0.0
 40
2.5
  1
  
  7
GREEKS
 72
     1
 11
946.6564651829916102
 21
200.2617692530618001
 31
0.0
  0
TEXT
  5
15D
  8
BEM
 10
1188.514277733569088
 20
335.8206512834640876
 30
0.0
 40
2.5
  1
 
 72
     4
 11
1189.6452301145209276
 21
335.8206512834640876
 31
0.0
  0
TEXT
  5
160
  8
VOLL
 10
454.1351803341311779
 20
211.2759977528519073
 30
0.0
 40
1.8
  1

  7
GREEKS
  0
TEXT
  5
161
  8
TEXT
 10
785.9674485377239535
 20
216.8342332860775059
 30
0.0
 40
2.5
  1
  
  7
GREEKS
 72
     1
 11
788.2293532996287695
 21
216.8342332860775059
 31
0.0
  0
TEXT
  5
162
  8
BEM
 10
1030.08716585020602
 20
352.3931153164796797
 30
0.0
 40
2.5
  1
 
 72
     4
 11
1031.2181182311580869
 21
352.3931153164796797
 31
0.0
  0
TEXT
  5
163
  8
BEM
 10
619.4807934137810435
 20
251.4292284514376092
 30
0.0
 40
2.5
  1

  7
GREEKS
  0
TEXT
  5
164
  8
VOLL
 10
605.4146003940595619
 20
231.2459677944025032
 30
0.0
 40
1.8
  1

  7
GREEKS
  0
TEXT
  5
165
  8
BEM
 10
639.9026652333443508
 20
235.9716921176230926
 30
0.0
 40
2.5
  1

 41
0.8
  7
GREEKS
  0
TEXT
  5
166
  8
BEM
 10
639.9026652333443508
 20
231.2779235635709085
 30
0.0
 40
2.5
  1

 41
0.8
  7
GREEKS
  0
TEXT
  5
167
  8
BEM
 10
639.9026652333443508
 20
226.0400797449073877
 30
0.0
 40
2.5
  1

 41
0.8
  7
GREEKS
  0
TEXT
  5
168
  8
BEM
 10
639.8297207559699018
 20
221.5348907948097974
 30
0.0
 40
1.8
  1

 41
0.8
  7
GREEKS
  0
TEXT
  5
169
  8
BEM
 10
627.1461498763585496
 20
247.1264798910351033
 30
0.0
 40
2.0
  1

 41
0.8
  7
GREEKS
 72
     1
 11
627.1461498763585496
 21
247.1264798910351033
 31
0.0
  0
TEXT
  5
16A
  8
TEXT
 10
937.2468685976525649
 20
236.8042033276279881
 30
0.0
 40
2.5
  1
  
  7
GREEKS
 72
     1
 11
939.5087733595572672
 21
236.8042033276279881
 31
0.0
  0
TEXT
  5
16B
  8
BEM
 10
1181.3665859101349724
 20
372.3630853580302755
 30
0.0
 40
2.5
  1
 
 72
     4
 11
1182.4975382910870394
 21
372.3630853580302755
 31
0.0
  0
TEXT
  5
16C
  8
VOLL
 10
406.6330629752692971
 20
258.0474683094898865
 30
0.0
 40
1.8
  1

  7
GREEKS
  0
TEXT
  5
16D
  8
TEXT
 10
738.4653311788622432
 20
263.6057038427153998
 30
0.0
 40
2.5
  1
  
  7
GREEKS
 72
     1
 11
740.7272359407669455
 21
263.6057038427153998
 31
0.0
  0
TEXT
  5
16E
  8
BEM
 10
982.5850484913443097
 20
399.1645858731176872
 30
0.0
 40
2.5
  1
 
 72
     4
 11
983.7160008722968314
 21
399.1645858731176872
 31
0.0
  0
TEXT
  5
16F
  8
VOLL
 10
564.1677800524307713
 20
263.6030239445610732
 30
0.0
 40
1.8
  1

  7
GREEKS
  0
TEXT
  5
170
  8
BEM
 10
598.6558448917154465
 20
268.3287482677818048
 30
0.0
 40
2.5
  1

 41
0.8
  7
GREEKS
  0
TEXT
  5
171
  8
BEM
 10
598.6558448917154465
 20
263.6349797137295923
 30
0.0
 40
2.5
  1

 41
0.8
  7
GREEKS
  0
TEXT
  5
172
  8
BEM
 10
598.6558448917154465
 20
258.3971358950661283
 30
0.0
 40
2.5
  1

 41
0.8
  7
GREEKS
  0
TEXT
  5
173
  8
BEM
 10
598.5829004143411112
 20
253.8919469449685096
 30
0.0
 40
1.8
  1

 41
0.8
  7
GREEKS
  0
TEXT
  5
174
  8
TEXT
 10
896.0000482560236605
 20
269.1612594777867002
 30
0.0
 40
2.5
  1
  
  7
GREEKS
 72
     1
 11
898.2619530179285903
 21
269.1612594777867002
 31
0.0
  0
TEXT
  5
175
  8
BEM
 10
1140.1197655685059544
 20
404.720141508188874
 30
0.0
 40
2.5
  1
 
 72
     4
 11
1141.2507179494580214
 21
404.720141508188874
 31
0.0
  0
TEXT
  5
176
  8
VOLL
 10
407.3527920181178956
 20
232.1432694743415937
 30
0.0
 40
1.8
  1

  7
GREEKS
  0
TEXT
  5
177
  8
TEXT
 10
739.1850602217108417
 20
237.701505007567107
 30
0.0
 40
2.5
  1
  
  7
GREEKS
 72
     1
 11
741.446964983615544
 21
237.701505007567107
 31
0.0
  0
TEXT
  5
178
  8
BEM
 10
983.3047775341927945
 20
373.2603870379692808
 30
0.0
 40
2.5
  1
 
 72
     4
 11
984.4357299151452025
 21
373.2603870379692808
 31
0.0
  0
TEXT
  5
179
  8
VOLL
 10
564.8875090952793698
 20
237.6988251094128088
 30
0.0
 40
1.8
  1

  7
GREEKS
  0
TEXT
  5
17A
  8
BEM
 10
599.375573934564045
 20
242.4245494326333983
 30
0.0
 40
2.5
  1

 41
0.8
  7
GREEKS
  0
TEXT
  5
17B
  8
BEM
 10
599.375573934564045
 20
237.7307808785812142
 30
0.0
 40
2.5
  1

 41
0.8
  7
GREEKS
  0
TEXT
  5
17C
  8
BEM
 10
599.375573934564045
 20
232.4929370599176934
 30
0.0
 40
2.5
  1

 41
0.8
  7
GREEKS
  0
TEXT
  5
17D
  8
BEM
 10
599.3026294571897097
 20
227.9877481098201031
 30
0.0
 40
1.8
  1

 41
0.8
  7
GREEKS
  0
TEXT
  5
17E
  8
TEXT
 10
896.7197772988723727
 20
243.2570606426382938
 30
0.0
 40
2.5
  1
  
  7
GREEKS
 72
     1
 11
898.9816820607773025
 21
243.2570606426382938
 31
0.0
  0
TEXT
  5
17F
  8
BEM
 10
1140.8394946113539845
 20
378.8159426730405812
 30
0.0
 40
2.5
  1
 
 72
     4
 11
1141.9704469923060515
 21
378.8159426730405812
 31
0.0
  0
TEXT
  5
180
  8
BEM
 10
421.4189850378393203
 20
252.3265301313766997
 30
0.0
 40
2.5
  1

  7
GREEKS
  0
TEXT
  5
181
  8
VOLL
 10
407.3527920181178956
 20
232.1432694743415937
 30
0.0
 40
1.8
  1

  7
GREEKS
  0
TEXT
  5
182
  8
BEM
 10
441.8408568574025139
 20
236.8689937975620978
 30
0.0
 40
2.5
  1

 41
0.8
  7
GREEKS
  0
TEXT
  5
183
  8
BEM
 10
441.8408568574025139
 20
232.175225243509999
 30
0.0
 40
2.5
  1

 41
0.8
  7
GREEKS
  0
TEXT
  5
184
  8
BEM
 10
441.8408568574025139
 20
226.9373814248465067
 30
0.0
 40
2.5
  1

 41
0.8
  7
GREEKS
  0
TEXT
  5
185
  8
BEM
 10
429.0843415004168833
 20
248.0237815709741938
 30
0.0
 40
2.0
  1

 41
0.8
  7
GREEKS
 72
     1
 11
429.0843415004168833
 21
248.0237815709741938
 31
0.0
  0
TEXT
  5
186
  8
TEXT
 10
739.1850602217108417
 20
237.701505007567107
 30
0.0
 40
2.5
  1
  
  7
GREEKS
 72
     1
 11
741.446964983615544
 21
237.701505007567107
 31
0.0
  0
TEXT
  5
187
  8
BEM
 10
983.3047775341927945
 20
373.2603870379692808
 30
0.0
 40
2.5
  1
 
 72
     4
 11
984.4357299151452025
 21
373.2603870379692808
 31
0.0
  0
INSERT
  5
7C0
  8
0
  2
A$C02973E26
 10
0.0
 20
0.0
 30
0.0
  0
INSERT
  5
7FF
  8
0
  2
A$C59D73FF7
 10
0.0000000000000737
 20
140.8159553294972
 30
0.0
  0
VIEWPORT
  5
5AD
 67
     1
  8
0
 10
5.6843483205822301
 20
3.6214370926858819
 30
0.0
 40
14.5642024684205094
 41
7.7360253164488242
 68
     1
 69
     1
1001
ACAD
1000
MVIEW
1002
{
1070
    16
1010
0.0
1020
0.0
1030
0.0
1010
0.0
1020
0.0
1030
1.0
1040
0.0
1040
7.7360253164488242
1040
5.6843483205822301
1040
3.6214370926858819
1040
50.0
1040
0.0
1040
0.0
1070
     0
1070
   500
1070
     1
1070
     1
1070
     0
1070
     0
1070
     0
1070
     0
1040
0.0
1040
0.0
1040
0.0
1040
10.0
1040
10.0
1040
10.0
1040
10.0
1070
     0
1002
{
1002
}
1002
}
  0
ENDSEC
  0
EOF
