  0
SECTION
  2
HEADER
  9
$ACADVER
  1
AC1009
  9
$INSBASE
 10
0.0
 20
0.0
 30
0.0
  9
$EXTMIN
 10
-183.7123564085781879
 20
-31.5057156177697415
 30
7.0522366046856169
  9
$EXTMAX
 10
53.7176230646268777
 20
397.7291354483389227
 30
7.0765040797562051
  9
$LIMMIN
 10
0.0
 20
0.0
  9
$LIMMAX
 10
419.9999999999998863
 20
594.0
  9
$ORTHOMODE
 70
     1
  9
$REGENMODE
 70
     1
  9
$FILLMODE
 70
     1
  9
$QTEXTMODE
 70
     0
  9
$MIRRTEXT
 70
     1
  9
$DRAGMODE
 70
     2
  9
$LTSCALE
 40
20.0
  9
$OSMODE
 70
  1327
  9
$ATTMODE
 70
     1
  9
$TEXTSIZE
 40
3.5
  9
$TRACEWID
 40
0.5
  9
$TEXTSTYLE
  7
STANDARD
  9
$CLAYER
  8
0
  9
$CELTYPE
  6
BYLAYER
  9
$CECOLOR
 62
    24
  9
$DIMSCALE
 40
2.0
  9
$DIMASZ
 40
3.5
  9
$DIMEXO
 40
1.0
  9
$DIMDLI
 40
7.0
  9
$DIMRND
 40
0.0
  9
$DIMDLE
 40
0.0
  9
$DIMEXE
 40
1.0
  9
$DIMTP
 40
0.0
  9
$DIMTM
 40
0.0
  9
$DIMTXT
 40
3.5
  9
$DIMCEN
 40
1.5
  9
$DIMTSZ
 40
0.0
  9
$DIMTOL
 70
     0
  9
$DIMLIM
 70
     0
  9
$DIMTIH
 70
     0
  9
$DIMTOH
 70
     0
  9
$DIMSE1
 70
     0
  9
$DIMSE2
 70
     0
  9
$DIMTAD
 70
     1
  9
$DIMZIN
 70
     8
  9
$DIMBLK
  1

  9
$DIMASO
 70
     1
  9
$DIMSHO
 70
     0
  9
$DIMPOST
  1

  9
$DIMAPOST
  1

  9
$DIMALT
 70
     0
  9
$DIMALTD
 70
     2
  9
$DIMALTF
 40
25.3999999999999986
  9
$DIMLFAC
 40
1.0
  9
$DIMTOFL
 70
     1
  9
$DIMTVP
 40
0.0
  9
$DIMTIX
 70
     0
  9
$DIMSOXD
 70
     0
  9
$DIMSAH
 70
     0
  9
$DIMBLK1
  1

  9
$DIMBLK2
  1

  9
$DIMSTYLE
  2
STANDARD
  9
$DIMCLRD
 70
     0
  9
$DIMCLRE
 70
     0
  9
$DIMCLRT
 70
     1
  9
$DIMTFAC
 40
0.5142857142857143
  9
$DIMGAP
 40
1.5
  9
$LUNITS
 70
     2
  9
$LUPREC
 70
     2
  9
$SKETCHINC
 40
1.0
  9
$FILLETRAD
 40
82.5
  9
$AUNITS
 70
     0
  9
$AUPREC
 70
     0
  9
$MENU
  1
ACAD
  9
$ELEVATION
 40
0.0
  9
$PELEVATION
 40
0.0
  9
$THICKNESS
 40
0.0
  9
$LIMCHECK
 70
     0
  9
$BLIPMODE
 70
     0
  9
$CHAMFERA
 40
0.0
  9
$CHAMFERB
 40
0.0
  9
$SKPOLY
 70
     0
  9
$TDCREATE
 40
2455397.8646990740671754
  9
$TDUPDATE
 40
2458383.3164583328180015
  9
$TDINDWG
 40
0.0750904398
  9
$TDUSRTIMER
 40
0.0750904398
  9
$USRTIMER
 70
     1
  9
$ANGBASE
 50
0.0
  9
$ANGDIR
 70
     0
  9
$PDMODE
 70
     0
  9
$PDSIZE
 40
0.0
  9
$PLINEWID
 40
0.0
  9
$COORDS
 70
     1
  9
$SPLFRAME
 70
     0
  9
$SPLINETYPE
 70
     6
  9
$SPLINESEGS
 70
     8
  9
$ATTDIA
 70
     0
  9
$ATTREQ
 70
     0
  9
$HANDLING
 70
     1
  9
$HANDSEED
  5
ACE
  9
$SURFTAB1
 70
     6
  9
$SURFTAB2
 70
     6
  9
$SURFTYPE
 70
     6
  9
$SURFU
 70
     6
  9
$SURFV
 70
     6
  9
$UCSNAME
  2

  9
$UCSORG
 10
0.0
 20
0.0
 30
0.0
  9
$UCSXDIR
 10
1.0
 20
0.0
 30
0.0
  9
$UCSYDIR
 10
0.0
 20
1.0
 30
0.0
  9
$PUCSNAME
  2

  9
$PUCSORG
 10
0.0
 20
0.0
 30
0.0
  9
$PUCSXDIR
 10
1.0
 20
0.0
 30
0.0
  9
$PUCSYDIR
 10
0.0
 20
1.0
 30
0.0
  9
$USERI1
 70
     0
  9
$USERI2
 70
     0
  9
$USERI3
 70
     0
  9
$USERI4
 70
     0
  9
$USERI5
 70
     0
  9
$USERR1
 40
0.0
  9
$USERR2
 40
0.0
  9
$USERR3
 40
0.0
  9
$USERR4
 40
0.0
  9
$USERR5
 40
0.0
  9
$WORLDVIEW
 70
     1
  9
$SHADEDGE
 70
     3
  9
$SHADEDIF
 70
    70
  9
$TILEMODE
 70
     1
  9
$MAXACTVP
 70
    16
  9
$PLIMCHECK
 70
     0
  9
$PEXTMIN
 10
-0.1378786349720507
 20
-0.1562059845773795
 30
-0.0000000000112498
  9
$PEXTMAX
 10
6.6296993372624691
 20
9.1628660642527748
 30
0.0000000000002956
  9
$PLIMMIN
 10
-0.2500002402958907
 20
-0.2499999962453767
  9
$PLIMMAX
 10
10.7499995194082203
 20
8.2499997634587334
  9
$UNITMODE
 70
     0
  9
$VISRETAIN
 70
     0
  9
$PLINEGEN
 70
     0
  9
$PSLTSCALE
 70
     0
  0
ENDSEC
  0
SECTION
  2
TABLES
  0
TABLE
  2
VPORT
 70
     1
  0
VPORT
  2
*ACTIVE
 70
     0
 10
0.0
 20
0.0
 11
1.0
 21
1.0
 12
2.5026333280241602
 22
53.0699618684095569
 13
0.0
 23
0.0
 14
1.0
 24
1.0
 15
10.0
 25
10.0
 16
-0.0000000000002842
 26
0.0
 36
1269.5466635793870864
 17
-67.4999999999998295
 27
130.041748046875
 37
159.0417512219351011
 40
432.4460843658550857
 41
1.8826466916354549
 42
50.0
 43
0.0
 44
0.0
 50
0.0
 51
0.0
 71
     0
 72
  1500
 73
     1
 74
     0
 75
     0
 76
     0
 77
     0
 78
     0
  0
ENDTAB
  0
TABLE
  2
LTYPE
 70
     3
  0
LTYPE
  2
CONTINUOUS
 70
     0
  3
Solid line
 72
    65
 73
     0
 40
0.0
  0
LTYPE
  2
VERDECKT
 70
     0
  3
Verdeckt __ __ __ __ __ __ __ __ __ __ __ __ __
 72
    65
 73
     2
 40
0.375
 49
0.25
 49
-0.125
  0
ENDTAB
  0
TABLE
  2
LAYER
 70
    10
  0
LAYER
  2
0
 70
     0
 62
     7
  6
CONTINUOUS
  0
LAYER
  2
VOLL
 70
     0
 62
     1
  6
CONTINUOUS
  0
LAYER
  2
DEFPOINTS
 70
     0
 62
     7
  6
CONTINUOUS
  0
ENDTAB
  0
TABLE
  2
STYLE
 70
     4
  0
STYLE
  2
STANDARD
 70
     0
 40
0.0
 41
0.8
 50
0.0
 71
     0
 42
3.5
  3
simplex.shx
  4

  0
STYLE
  2
GREEKS
 70
     0
 40
0.0
 41
0.8
 50
0.0
 71
     0
 42
2.5
  3
SIMPLEX.shx
  4

  0
ENDTAB
  0
TABLE
  2
VIEW
 70
     2
  0
ENDTAB
  0
TABLE
  2
UCS
 70
     0
  0
ENDTAB
  0
TABLE
  2
APPID
 70
     9
  0
APPID
  2
ACAD
 70
     0
  0
APPID
  2
ACAECLAYERSTANDARD
 70
     0
  0
APPID
  2
ACCMTRANSPARENCY
 70
     0
  0
APPID
  2
ACAD_NAV_VCDISPLAY
 70
     0
  0
APPID
  2
ACADANNOMONITORALERTICONDI
 70
     0
  0
APPID
  2
ACAD_EXEMPT_FROM_CAD_STANDARDS
 70
     0
  0
APPID
  2
ACAD_PSEXT
 70
     0
  0
APPID
  2
ACAD_MLEADERVER
 70
     0
  0
APPID
  2
ACAD_OBJECT_CHANGE_GUID
 70
     0
  0
ENDTAB
  0
TABLE
  2
DIMSTYLE
 70
     2
  0
DIMSTYLE
  2
STANDARD
 70
     0
  3

  4

  5

  6

  7

 40
1.0
 41
0.18
 42
0.0625
 43
0.38
 44
0.18
 45
0.0
 46
0.0
 47
0.0
 48
0.0
140
0.18
141
0.09
142
0.0
143
25.3999999999999986
144
1.0
145
0.0
146
1.0
147
0.09
 71
     0
 72
     0
 73
     1
 74
     1
 75
     0
 76
     0
 77
     0
 78
     0
170
     0
171
     2
172
     0
173
     0
174
     0
175
     0
176
     0
177
     0
178
     0
  0
ENDTAB
  0
ENDSEC
  0
SECTION
  2
BLOCKS
  0
BLOCK
  8
0
  2
$MODEL_SPACE
 70
     0
 10
0.0
 20
0.0
 30
0.0
  3
$MODEL_SPACE
  1

  0
ENDBLK
  5
36
  8
0
  0
BLOCK
 67
     1
  8
0
  2
$PAPER_SPACE
 70
     0
 10
0.0
 20
0.0
 30
0.0
  3
$PAPER_SPACE
  1

  0
ENDBLK
  5
34
 67
     1
  8
0
  0
BLOCK
  8
0
 62
    24
  2
A$C25C626C9
 70
     0
 10
0.0
 20
0.0
 30
0.0
  3
A$C25C626C9
  1

  0
ARC
  5
A27
  8
0
  6
CONTINUOUS
 62
     3
 10
0.0000000000002425
 20
0.0000000000000178
 30
0.0
 40
26.5
 50
270.0
 51
90.0
  0
CIRCLE
  5
A28
  8
0
  6
CONTINUOUS
 62
     3
 10
-129.999999999999801
 20
0.000000000000033
 30
0.0
 40
27.9290197827830795
  0
CIRCLE
  5
A29
  8
0
  6
CONTINUOUS
 62
     3
 10
-129.9999999999996874
 20
0.0000000000000304
 30
0.0
 40
25.0000000000000888
  0
CIRCLE
  5
A2A
  8
0
  6
CONTINUOUS
 62
     3
 10
-129.999999999999801
 20
0.000000000000033
 30
0.0
 40
29.6070448491913112
  0
CIRCLE
  5
A2B
  8
0
  6
CONTINUOUS
 62
     3
 10
-129.999999999999801
 20
0.0000000000000325
 30
0.0
 40
31.5
  0
LINE
  5
A2C
  8
0
  6
CONTINUOUS
 62
     3
 10
-90.6210629743734017
 20
26.5000000000000284
 30
-0.0000000000000284
 11
-112.970613634073402
 21
26.5000000000000284
 31
-0.0000000000000284
  0
LINE
  5
A2D
  8
0
  6
CONTINUOUS
 62
     3
 10
-112.970613634073402
 20
-26.4999999999999893
 30
-0.0000000000000284
 11
-90.6210629743734444
 21
-26.4999999999999893
 31
-0.0000000000000284
  0
LINE
  5
A2E
  8
0
  6
CONTINUOUS
 62
     3
 10
-39.3789370256260725
 20
-26.4999999999999787
 30
0.0
 11
-90.6210629743734728
 21
-26.4999999999999787
 31
-0.0000000000000107
  0
LINE
  5
A2F
  8
0
  6
CONTINUOUS
 62
     3
 10
-39.3789370256260725
 20
26.5000000000000213
 30
0.0
 11
-90.6210629743734728
 21
26.5000000000000284
 31
-0.0000000000000107
  0
LINE
  5
A30
  8
0
  6
CONTINUOUS
 62
     3
 10
-39.3789370256261577
 20
-26.4999999999999787
 30
0.0
 11
0.0000000000002274
 21
-26.4999999999999893
 31
0.0
  0
LINE
  5
A31
  8
0
  6
CONTINUOUS
 62
     3
 10
0.0000000000001999
 20
26.5000000000000213
 30
0.0
 11
-39.3789370256262004
 21
26.5000000000000213
 31
0.0
  0
CIRCLE
  5
A32
  8
0
  6
VERDECKT
 62
     1
 10
0.0000000000002425
 20
0.0000000000000178
 30
0.0
 40
25.0
  0
CIRCLE
  5
A33
  8
0
  6
VERDECKT
 62
     1
 10
0.0000000000001137
 20
0.0000000000000135
 30
0.0
 40
24.3818495990032602
  0
ARC
  5
A34
  8
0
  6
VERDECKT
 62
     1
 10
0.0000000000002425
 20
0.0000000000000196
 30
0.0
 40
26.5
 50
90.0
 51
270.0
  0
CIRCLE
  5
A35
  8
0
  6
VERDECKT
 62
     1
 10
0.0
 20
0.0000000000000135
 30
0.0
 40
25.887579355318401
  0
CIRCLE
  5
A36
  8
0
  6
VERDECKT
 62
     1
 10
-129.999999999999801
 20
0.0000000000000325
 30
0.0
 40
30.0000000000001492
  0
CIRCLE
  5
A37
  8
0
  6
VERDECKT
 62
     1
 10
-129.9999999999996874
 20
0.0000000000000315
 30
0.0
 40
28.0000000000000604
  0
CIRCLE
  5
A38
  8
0
  6
VERDECKT
 62
     1
 10
-129.999999999999801
 20
0.0000000000000315
 30
0.0
 40
29.5
  0
CIRCLE
  5
A39
  8
0
  6
VERDECKT
 62
     1
 10
-129.999999999999801
 20
0.0000000000000304
 30
0.0
 40
26.5
  0
LINE
  5
A3A
  8
0
  6
VERDECKT
 62
     1
 10
-90.6210629743736291
 20
25.0000000000000284
 30
-0.0000000000000284
 11
-130.0000000000001137
 21
25.0000000000000284
 31
-0.0000000000000284
  0
LINE
  5
A3B
  8
0
  6
VERDECKT
 62
     1
 10
-130.0000000000001137
 20
-24.9999999999999787
 30
-0.0000000000000284
 11
-90.6210629743736433
 21
-24.9999999999999787
 31
-0.0000000000000284
  0
LINE
  5
A3C
  8
0
  6
VERDECKT
 62
     1
 10
-39.3789370256260725
 20
-24.9999999999999787
 30
0.0
 11
-90.6210629743736718
 21
-24.9999999999999787
 31
-0.0000000000000107
  0
LINE
  5
A3D
  8
0
  6
VERDECKT
 62
     1
 10
-39.3789370256260725
 20
25.0000000000000284
 30
0.0
 11
-90.6210629743736718
 21
25.0000000000000284
 31
-0.0000000000000107
  0
LINE
  5
A3E
  8
0
  6
VERDECKT
 62
     1
 10
-39.3789370256261222
 20
-24.9999999999999787
 30
0.0
 11
0.0000000000001137
 21
-24.9999999999999787
 31
0.0
  0
LINE
  5
A3F
  8
0
  6
VERDECKT
 62
     1
 10
0.000000000000143
 20
25.0000000000000213
 30
0.0
 11
-39.3789370256261577
 21
25.0000000000000213
 31
0.0
  0
LINE
  5
A40
  8
0
  6
VERDECKT
 62
     1
 10
-112.970613634073402
 20
26.5000000000000284
 30
-0.0000000000000284
 11
-130.0
 21
26.5000000000000391
 31
-0.0000000000000284
  0
LINE
  5
A41
  8
0
  6
VERDECKT
 62
     1
 10
-130.0
 20
-26.4999999999999787
 30
-0.0000000000000284
 11
-112.970613634073402
 21
-26.4999999999999893
 31
-0.0000000000000284
  0
ENDBLK
  5
A43
  8
0
 62
    24
  0
BLOCK
  8
0
 62
    24
  2
A$C1F741813
 70
     0
 10
0.0
 20
0.0
 30
0.0
  3
A$C1F741813
  1

  0
LINE
  5
A47
  8
0
  6
CONTINUOUS
 62
     3
 10
-25.887579355318401
 20
0.0000000000000284
 30
0.0
 11
25.887579355318401
 21
-0.0000000000000853
 31
0.0
210
0.0
220
1.0
230
-0.0000000000000002
  0
LINE
  5
A48
  8
0
  6
CONTINUOUS
 62
     3
 10
-159.6070448491911975
 20
318.0835024438704863
 30
-0.0000000000000706
 11
-100.3929551508085041
 21
318.0835024438704863
 31
-0.0000000000000706
210
0.0
220
1.0
230
-0.0000000000000002
  0
LINE
  5
A49
  8
0
  6
CONTINUOUS
 62
     3
 10
26.5000000000003197
 20
70.0000000000001137
 30
-0.0000000000000155
 11
26.5000000000001315
 21
7.0000000000000302
 31
-0.0000000000000016
210
0.0
220
1.0
230
-0.0000000000000002
  0
LINE
  5
A4A
  8
0
  6
CONTINUOUS
 62
     3
 10
-26.4999999999999112
 20
70.0000000000000853
 30
-0.0000000000000155
 11
-26.5000000000000995
 21
7.0000000000001998
 31
-0.0000000000000016
210
0.0
220
1.0
230
-0.0000000000000002
  0
LINE
  5
A4B
  8
0
  6
CONTINUOUS
 62
     3
 10
-25.887579355318401
 20
0.0000000000000857
 30
0.0
 11
-26.5
 21
7.0000000000001998
 31
-0.0000000000000016
210
0.0
220
1.0
230
-0.0000000000000002
  0
LINE
  5
A4C
  8
0
  6
CONTINUOUS
 62
     3
 10
25.8875793553183691
 20
-0.0000000000000777
 30
0.0
 11
26.5000000000000213
 21
7.0000000000000329
 31
-0.0000000000000016
210
0.0
220
1.0
230
-0.0000000000000002
  0
ARC
  5
A4D
  8
0
  6
CONTINUOUS
 62
     3
 10
47.5000000000001492
 20
242.0835024438711969
 30
0.0
 40
109.0
210
0.0
220
-0.0000000000000002
230
-1.0
 50
301.5121627352029918
 51
359.9999999999996021
  0
ARC
  5
A4E
  8
0
  6
CONTINUOUS
 62
     3
 10
-47.5000000000001634
 20
242.0835024438711969
 30
-0.0000000000000538
 40
55.9999999999999503
 50
180.0000000000005969
 51
238.4878372647972071
  0
LINE
  5
A4F
  8
0
  6
CONTINUOUS
 62
     3
 10
-53.2299451325459927
 20
117.7416368388880983
 30
-0.0000000000000261
 11
-104.4720710812935067
 21
149.1578164538927069
 31
-0.0000000000000331
210
0.0
220
1.0
230
-0.0000000000000002
  0
LINE
  5
A50
  8
0
  6
CONTINUOUS
 62
     3
 10
-25.5279289187061806
 20
162.9256859899784899
 30
-0.0000000000000362
 11
-76.7700548674536094
 21
194.3418656049830986
 31
-0.0000000000000432
210
0.0
220
1.0
230
-0.0000000000000002
  0
ARC
  5
A51
  8
0
  6
CONTINUOUS
 62
     3
 10
82.4999999999996447
 20
70.0000000000002274
 30
0.0
 40
108.999999999999801
210
0.0
220
-0.0000000000000002
230
-1.0
 50
121.5121627352031055
 51
180.0
  0
ARC
  5
A52
  8
0
  6
CONTINUOUS
 62
     3
 10
-82.4999999999995168
 20
70.00000000000027
 30
-0.0000000000000155
 40
55.9999999999997371
 50
0.0
 51
58.4878372647970792
  0
ARC
  5
A53
  8
0
  6
CONTINUOUS
 62
     3
 10
141.9935663871542886
 20
309.7010011012093855
 30
0.0
 40
19.5064336128455089
210
0.0
220
-0.0000000000000002
230
-1.0
 50
0.0000000000006743
 51
25.4504317769778616
  0
ARC
  5
A54
  8
0
  6
CONTINUOUS
 62
     3
 10
118.0064336128458962
 20
309.7010011012092718
 30
0.0
 40
19.5064336128460596
210
0.0
220
-0.0000000000000002
230
-1.0
 50
154.5495682230223053
 51
179.9999999999988063
  0
LINE
  5
A55
  8
0
  6
CONTINUOUS
 62
     3
 10
-98.4999999999997868
 20
309.7010011012097266
 30
-0.0000000000000688
 11
-98.4999999999997868
 21
305.2054667417916107
 31
-0.0000000000000678
210
0.0
220
1.0
230
-0.0000000000000002
  0
LINE
  5
A56
  8
0
  6
CONTINUOUS
 62
     3
 10
-161.5
 20
309.7010011012097266
 30
-0.0000000000000688
 11
-161.5
 21
305.2054667417916107
 31
-0.0000000000000678
210
0.0
220
1.0
230
-0.0000000000000002
  0
ARC
  5
A57
  8
0
  6
CONTINUOUS
 62
     3
 10
136.5000000000231068
 20
305.2455024438668261
 30
0.0
 40
25.0000320571051518
210
0.0
220
-0.0000000000000002
230
-1.0
 50
340.5369005553030775
 51
359.9082450080871922
  0
ARC
  5
A58
  8
0
  6
CONTINUOUS
 62
     3
 10
123.4999999999772058
 20
305.2455024438668829
 30
0.0
 40
25.0000320571056598
210
0.0
220
-0.0000000000000002
230
-1.0
 50
180.0917549919130067
 51
199.4630994446966952
  0
ARC
  5
A59
  8
0
  6
CONTINUOUS
 62
     3
 10
169.499999999997101
 20
293.5835024438708274
 30
0.0
 40
9.9999999999972058
210
0.0
220
-0.0000000000000002
230
-1.0
 50
160.5369005553037027
 51
180.0000000000019043
  0
ARC
  5
A5A
  8
0
  6
CONTINUOUS
 62
     3
 10
90.5000000000041211
 20
293.5835024438709979
 30
0.0
 40
9.9999999999957652
210
0.0
220
-0.0000000000000002
230
-1.0
 50
359.9999999999969873
 51
19.4630994446981589
  0
LINE
  5
A5B
  8
0
  6
CONTINUOUS
 62
     3
 10
-100.4999999999997016
 20
293.5835024438704863
 30
-0.0000000000000652
 11
-100.4999999999997016
 21
285.4918293570665924
 31
-0.0000000000000634
210
0.0
220
1.0
230
-0.0000000000000002
  0
LINE
  5
A5C
  8
0
  6
CONTINUOUS
 62
     3
 10
-159.5
 20
293.5835024438704863
 30
-0.0000000000000652
 11
-159.5
 21
285.4918293570665924
 31
-0.0000000000000634
210
0.0
220
1.0
230
-0.0000000000000002
  0
ARC
  5
A5D
  8
0
  6
CONTINUOUS
 62
     3
 10
147.4999999999984084
 20
285.491829357067104
 30
0.0
 40
12.0000000000015898
210
0.0
220
-0.0000000000000002
230
-1.0
 50
328.2116693829489122
 51
359.9999999999977831
  0
ARC
  5
A5E
  8
0
  6
CONTINUOUS
 62
     3
 10
112.5000000000012932
 20
285.491829357067104
 30
0.0
 40
12.0000000000015792
210
0.0
220
-0.0000000000000002
230
-1.0
 50
180.0000000000019895
 51
211.7883306170510878
  0
ARC
  5
A5F
  8
0
  6
CONTINUOUS
 62
     3
 10
164.5000000000005116
 20
274.956175604213513
 30
0.0
 40
8.0000000000006182
210
0.0
220
-0.0000000000000002
230
-1.0
 50
148.2116693829505891
 51
179.9999999999978968
  0
ARC
  5
A60
  8
0
  6
CONTINUOUS
 62
     3
 10
95.4999999999995879
 20
274.9561756042136267
 30
0.0
 40
8.0000000000002842
210
0.0
220
-0.0000000000000002
230
-1.0
 50
0.0000000000012213
 51
31.7883306170499509
  0
LINE
  5
A61
  8
0
  6
CONTINUOUS
 62
     3
 10
-103.4999999999997016
 20
274.9561756042137972
 30
-0.0000000000000611
 11
-103.4999999999997016
 21
242.0835024438704863
 31
-0.0000000000000538
210
0.0
220
1.0
230
-0.0000000000000002
  0
LINE
  5
A62
  8
0
  6
CONTINUOUS
 62
     3
 10
-156.5
 20
274.9561756042137972
 30
-0.0000000000000611
 11
-156.5
 21
242.0835024438704863
 31
-0.0000000000000538
210
0.0
220
1.0
230
-0.0000000000000002
  0
LINE
  5
A63
  8
0
  6
VERDECKT
 62
     1
 10
25.0000000000002807
 20
69.9999999999998863
 30
-0.0000000000000155
 11
25.0000000000001812
 21
7.0654914143631391
 31
-0.0000000000000016
210
0.0
220
1.0
230
-0.0000000000000002
  0
LINE
  5
A64
  8
0
  6
VERDECKT
 62
     1
 10
-24.9999999999999503
 20
69.9999999999998153
 30
-0.0000000000000155
 11
-25.0000000000000497
 21
7.0654914143632102
 31
-0.0000000000000016
210
0.0
220
1.0
230
-0.0000000000000002
  0
LINE
  5
A65
  8
0
  6
VERDECKT
 62
     1
 10
-24.3818495990031501
 20
0.0000000000001186
 30
0.0
 11
-24.9999999999999503
 21
7.0654914143632146
 31
-0.0000000000000016
210
0.0
220
1.0
230
-0.0000000000000002
  0
LINE
  5
A66
  8
0
  6
VERDECKT
 62
     1
 10
24.3818495990033703
 20
0.0000000000000679
 30
0.0
 11
25.0000000000001883
 21
7.0654914143631471
 31
-0.0000000000000016
210
0.0
220
1.0
230
-0.0000000000000002
  0
ARC
  5
A67
  8
0
  6
VERDECKT
 62
     1
 10
47.5000000000003482
 20
242.0835024438706
 30
0.0
 40
107.499999999999801
210
0.0
220
-0.0000000000000002
230
-1.0
 50
301.5121627352031055
 51
359.9999999999998863
  0
ARC
  5
A68
  8
0
  6
VERDECKT
 62
     1
 10
-47.5000000000003766
 20
242.0835024438706
 30
-0.0000000000000538
 40
57.4999999999998224
 50
180.0000000000001137
 51
238.4878372647972071
  0
LINE
  5
A69
  8
0
  6
VERDECKT
 62
     1
 10
-52.4459258057393569
 20
119.0204306827864968
 30
-0.0000000000000264
 11
-103.688051754487006
 21
150.4366102977911055
 31
-0.0000000000000334
210
0.0
220
1.0
230
-0.0000000000000002
  0
LINE
  5
A6A
  8
0
  6
VERDECKT
 62
     1
 10
-26.3119482455127915
 20
161.6468921460792103
 30
-0.0000000000000359
 11
-77.5540741942604086
 21
193.0630717610837905
 31
-0.0000000000000429
210
0.0
220
1.0
230
-0.0000000000000002
  0
ARC
  5
A6B
  8
0
  6
VERDECKT
 62
     1
 10
82.5000000000000853
 20
69.9999999999997158
 30
0.0
 40
107.500000000000199
210
0.0
220
-0.0000000000000002
230
-1.0
 50
121.5121627352033045
 51
179.9999999999998863
  0
ARC
  5
A6C
  8
0
  6
VERDECKT
 62
     1
 10
-82.4999999999999432
 20
69.9999999999997868
 30
-0.0000000000000155
 40
57.5000000000000568
 50
0.0000000000000127
 51
58.4878372647967169
  0
ARC
  5
A6D
  8
0
  6
VERDECKT
 62
     1
 10
141.9999999999994884
 20
309.7010011012096129
 30
0.0
 40
18.0000000000005116
210
0.0
220
-0.0000000000000002
230
-1.0
 50
0.0000000000001781
 51
27.7551793916141598
  0
ARC
  5
A6E
  8
0
  6
VERDECKT
 62
     1
 10
117.9999999999997016
 20
309.7010011012097266
 30
0.0
 40
17.9999999999999609
210
0.0
220
-0.0000000000000002
230
-1.0
 50
152.2448206083853108
 51
180.0
  0
LINE
  5
A6F
  8
0
  6
VERDECKT
 62
     1
 10
-99.9999999999997868
 20
309.7010011012097266
 30
-0.0000000000000688
 11
-99.9999999999997868
 21
305.2054667418626082
 31
-0.0000000000000678
210
0.0
220
1.0
230
-0.0000000000000002
  0
LINE
  5
A70
  8
0
  6
VERDECKT
 62
     1
 10
-160.0
 20
309.7010011012097266
 30
-0.0000000000000688
 11
-160.0
 21
305.2054667418624945
 31
-0.0000000000000678
210
0.0
220
1.0
230
-0.0000000000000002
  0
ARC
  5
A71
  8
0
  6
VERDECKT
 62
     1
 10
136.4999659003117074
 20
305.2455144944913741
 30
0.0
 40
23.5000682234967293
210
0.0
220
-0.0000000000000002
230
-1.0
 50
340.5369005553123998
 51
359.9023590785599254
  0
ARC
  5
A72
  8
0
  6
VERDECKT
 62
     1
 10
123.5000340996887047
 20
305.2455144944914878
 30
0.0
 40
23.5000682234973404
210
0.0
220
-0.0000000000000002
230
-1.0
 50
180.0976409214401031
 51
199.4630994446870034
  0
ARC
  5
A73
  8
0
  6
VERDECKT
 62
     1
 10
169.4999999999944862
 20
293.5835024438708842
 30
0.0
 40
11.4999999999947295
210
0.0
220
-0.0000000000000002
230
-1.0
 50
160.5369005553122008
 51
180.0000000000021885
  0
ARC
  5
A74
  8
0
  6
VERDECKT
 62
     1
 10
90.5000000000048459
 20
293.5835024438708842
 30
0.0
 40
11.4999999999948503
210
0.0
220
-0.0000000000000002
230
-1.0
 50
359.9999999999980105
 51
19.4630994446875292
  0
LINE
  5
A75
  8
0
  6
VERDECKT
 62
     1
 10
-101.9999999999996021
 20
293.5835024438706
 30
-0.0000000000000652
 11
-101.9999999999996021
 21
285.4918293570665924
 31
-0.0000000000000634
210
0.0
220
1.0
230
-0.0000000000000002
  0
LINE
  5
A76
  8
0
  6
VERDECKT
 62
     1
 10
-157.9999999999998863
 20
293.5835024438704863
 30
-0.0000000000000652
 11
-157.9999999999998863
 21
285.4918293570665924
 31
-0.0000000000000634
210
0.0
220
1.0
230
-0.0000000000000002
  0
ARC
  5
A77
  8
0
  6
VERDECKT
 62
     1
 10
147.4999999999990052
 20
285.4918293570665924
 30
0.0
 40
10.5000000000007905
210
0.0
220
-0.0000000000000002
230
-1.0
 50
328.2116693829490828
 51
0.0000000000003181
  0
ARC
  5
A78
  8
0
  6
VERDECKT
 62
     1
 10
112.5000000000007958
 20
285.4918293570665924
 30
0.0
 40
10.50000000000116
210
0.0
220
-0.0000000000000002
230
-1.0
 50
180.0
 51
211.7883306170496098
  0
ARC
  5
A79
  8
0
  6
VERDECKT
 62
     1
 10
164.4999999999998863
 20
274.9561756042136267
 30
0.0
 40
9.4999999999999982
210
0.0
220
-0.0000000000000002
230
-1.0
 50
148.2116693829491965
 51
179.9999999999986073
  0
ARC
  5
A7A
  8
0
  6
VERDECKT
 62
     1
 10
95.4999999999997442
 20
274.9561756042136267
 30
0.0
 40
9.4999999999999432
210
0.0
220
-0.0000000000000002
230
-1.0
 50
0.000000000001374
 51
31.7883306170517415
  0
LINE
  5
A7B
  8
0
  6
VERDECKT
 62
     1
 10
-104.9999999999997016
 20
274.9561756042139109
 30
-0.0000000000000611
 11
-104.9999999999996021
 21
242.0835024438704011
 31
-0.0000000000000538
210
0.0
220
1.0
230
-0.0000000000000002
  0
LINE
  5
A7C
  8
0
  6
VERDECKT
 62
     1
 10
-154.9999999999998863
 20
274.9561756042137972
 30
-0.0000000000000611
 11
-154.999999999999801
 21
242.0835024438704011
 31
-0.0000000000000538
210
0.0
220
1.0
230
-0.0000000000000002
  0
ENDBLK
  5
A7E
  8
0
 62
    24
  0
ENDSEC
  0
SECTION
  2
ENTITIES
  0
TEXT
  5
8F
  8
VOLL
 10
78.076754716981128
 20
31.025947764705851
 30
0.0
 40
1.8
  1

  7
GREEKS
  0
INSERT
  5
A44
  8
0
 62
    24
  2
A$C25C626C9
 10
0.0000000000001137
 20
0.000000000000014
 30
7.0654914143631791
  0
INSERT
  5
A7F
  8
0
 62
    24
  2
A$C1F741813
 10
0.0000000000003513
 20
79.6419418391535885
 30
7.0654914143631791
  0
VIEWPORT
  5
894
 67
     1
  8
0
 62
    24
 10
3.8145536922706258
 20
4.5034332484978172
 30
0.0
 40
17.6687065572505695
 41
9.3850357774255357
 68
     1
 69
     1
1001
ACAD
1000
MVIEW
1002
{
1070
    16
1010
0.0
1020
0.0
1030
0.0
1010
0.0
1020
0.0
1030
1.0
1040
0.0
1040
9.3850357774255357
1040
3.8145536922706258
1040
4.5034332484978172
1040
50.0
1040
0.0
1040
0.0
1070
     0
1070
  1500
1070
     1
1070
     1
1070
     0
1070
     0
1070
     0
1070
     0
1040
0.0
1040
0.0
1040
0.0
1040
10.0
1040
10.0
1040
10.0
1040
10.0
1070
     0
1002
{
1002
}
1002
}
  0
ENDSEC
  0
EOF
