  0
SECTION
  2
HEADER
  9
$ACADVER
  1
AC1009
  9
$INSBASE
 10
0.0
 20
0.0
 30
0.0
  9
$EXTMIN
 10
-297.9798388332761192
 20
-76.0023776133198226
 30
6.888363902778905
  9
$EXTMAX
 10
97.9985283491855625
 20
638.2508633229861061
 30
7.0292296809187738
  9
$LIMMIN
 10
0.0
 20
0.0
  9
$LIMMAX
 10
839.9999999999997726
 20
594.0000000000002274
  9
$ORTHOMODE
 70
     1
  9
$REGENMODE
 70
     1
  9
$FILLMODE
 70
     1
  9
$QTEXTMODE
 70
     0
  9
$MIRRTEXT
 70
     1
  9
$DRAGMODE
 70
     2
  9
$LTSCALE
 40
20.0
  9
$OSMODE
 70
  1327
  9
$ATTMODE
 70
     1
  9
$TEXTSIZE
 40
3.5
  9
$TRACEWID
 40
0.5
  9
$TEXTSTYLE
  7
STANDARD
  9
$CLAYER
  8
0
  9
$CELTYPE
  6
BYLAYER
  9
$CECOLOR
 62
   256
  9
$DIMSCALE
 40
2.0
  9
$DIMASZ
 40
3.5
  9
$DIMEXO
 40
1.0
  9
$DIMDLI
 40
7.0
  9
$DIMRND
 40
0.0
  9
$DIMDLE
 40
0.0
  9
$DIMEXE
 40
1.0
  9
$DIMTP
 40
8.0
  9
$DIMTM
 40
8.0
  9
$DIMTXT
 40
3.5
  9
$DIMCEN
 40
1.5
  9
$DIMTSZ
 40
0.0
  9
$DIMTOL
 70
     0
  9
$DIMLIM
 70
     0
  9
$DIMTIH
 70
     0
  9
$DIMTOH
 70
     0
  9
$DIMSE1
 70
     0
  9
$DIMSE2
 70
     0
  9
$DIMTAD
 70
     1
  9
$DIMZIN
 70
     8
  9
$DIMBLK
  1

  9
$DIMASO
 70
     1
  9
$DIMSHO
 70
     0
  9
$DIMPOST
  1

  9
$DIMAPOST
  1

  9
$DIMALT
 70
     0
  9
$DIMALTD
 70
     2
  9
$DIMALTF
 40
25.3999999999999986
  9
$DIMLFAC
 40
1.0
  9
$DIMTOFL
 70
     1
  9
$DIMTVP
 40
0.0
  9
$DIMTIX
 70
     0
  9
$DIMSOXD
 70
     0
  9
$DIMSAH
 70
     0
  9
$DIMBLK1
  1

  9
$DIMBLK2
  1

  9
$DIMSTYLE
  2
STANDARD
  9
$DIMCLRD
 70
     0
  9
$DIMCLRE
 70
     0
  9
$DIMCLRT
 70
     1
  9
$DIMTFAC
 40
0.5142857142857143
  9
$DIMGAP
 40
1.5
  9
$LUNITS
 70
     2
  9
$LUPREC
 70
     2
  9
$SKETCHINC
 40
1.0
  9
$FILLETRAD
 40
0.0
  9
$AUNITS
 70
     0
  9
$AUPREC
 70
     0
  9
$MENU
  1
ACAD
  9
$ELEVATION
 40
0.0
  9
$PELEVATION
 40
0.0
  9
$THICKNESS
 40
0.0
  9
$LIMCHECK
 70
     0
  9
$BLIPMODE
 70
     0
  9
$CHAMFERA
 40
0.0
  9
$CHAMFERB
 40
0.0
  9
$SKPOLY
 70
     0
  9
$TDCREATE
 40
2452565.5533912042155862
  9
$TDUPDATE
 40
2458382.608935184776783
  9
$TDINDWG
 40
0.0875489815
  9
$TDUSRTIMER
 40
0.0875489815
  9
$USRTIMER
 70
     1
  9
$ANGBASE
 50
0.0
  9
$ANGDIR
 70
     0
  9
$PDMODE
 70
     0
  9
$PDSIZE
 40
0.0
  9
$PLINEWID
 40
0.0
  9
$COORDS
 70
     1
  9
$SPLFRAME
 70
     0
  9
$SPLINETYPE
 70
     6
  9
$SPLINESEGS
 70
     8
  9
$ATTDIA
 70
     0
  9
$ATTREQ
 70
     0
  9
$HANDLING
 70
     1
  9
$HANDSEED
  5
B81
  9
$SURFTAB1
 70
     6
  9
$SURFTAB2
 70
     6
  9
$SURFTYPE
 70
     6
  9
$SURFU
 70
     6
  9
$SURFV
 70
     6
  9
$UCSNAME
  2

  9
$UCSORG
 10
0.0
 20
0.0
 30
0.0
  9
$UCSXDIR
 10
1.0
 20
0.0
 30
0.0
  9
$UCSYDIR
 10
0.0
 20
1.0
 30
0.0
  9
$PUCSNAME
  2

  9
$PUCSORG
 10
0.0
 20
0.0
 30
0.0
  9
$PUCSXDIR
 10
1.0
 20
0.0
 30
0.0
  9
$PUCSYDIR
 10
0.0
 20
1.0
 30
0.0
  9
$USERI1
 70
     0
  9
$USERI2
 70
     0
  9
$USERI3
 70
     0
  9
$USERI4
 70
     0
  9
$USERI5
 70
     0
  9
$USERR1
 40
0.0
  9
$USERR2
 40
0.0
  9
$USERR3
 40
0.0
  9
$USERR4
 40
0.0
  9
$USERR5
 40
0.0
  9
$WORLDVIEW
 70
     1
  9
$SHADEDGE
 70
     3
  9
$SHADEDIF
 70
    70
  9
$TILEMODE
 70
     1
  9
$MAXACTVP
 70
    16
  9
$PLIMCHECK
 70
     0
  9
$PEXTMIN
 10
-0.1066186562963516
 20
-0.1458511145317338
 30
-0.0000000349181948
  9
$PEXTMAX
 10
11.4522917615383708
 20
8.1452024228087172
 30
0.0000000814935746
  9
$PLIMMIN
 10
-0.2500002402958907
 20
-0.2499999962453767
  9
$PLIMMAX
 10
10.7499995194082203
 20
8.2499997634587334
  9
$UNITMODE
 70
     0
  9
$VISRETAIN
 70
     0
  9
$PLINEGEN
 70
     0
  9
$PSLTSCALE
 70
     0
  0
ENDSEC
  0
SECTION
  2
TABLES
  0
TABLE
  2
VPORT
 70
     1
  0
VPORT
  2
*ACTIVE
 70
     0
 10
0.0
 20
0.0
 11
1.0
 21
1.0
 12
4.7593447579546364
 22
88.3288784749503293
 13
0.0
 23
0.0
 14
1.0
 24
1.0
 15
10.0
 25
10.0
 16
-0.0000000000004547
 26
0.0
 36
2035.6533046324170755
 17
-104.7499999999999005
 27
192.7953643798828125
 37
230.7953710500177067
 40
719.5967813921885181
 41
1.8826466916354549
 42
50.0
 43
0.0
 44
0.0
 50
0.0
 51
0.0
 71
     0
 72
  1500
 73
     1
 74
     0
 75
     0
 76
     0
 77
     0
 78
     0
  0
ENDTAB
  0
TABLE
  2
LTYPE
 70
     3
  0
LTYPE
  2
CONTINUOUS
 70
     0
  3
Solid line
 72
    65
 73
     0
 40
0.0
  0
LTYPE
  2
VERDECKT
 70
     0
  3
Verdeckt __ __ __ __ __ __ __ __ __ __ __ __ __
 72
    65
 73
     2
 40
0.375
 49
0.25
 49
-0.125
  0
ENDTAB
  0
TABLE
  2
LAYER
 70
    10
  0
LAYER
  2
0
 70
     0
 62
     7
  6
CONTINUOUS
  0
LAYER
  2
VOLL
 70
     0
 62
     1
  6
CONTINUOUS
  0
LAYER
  2
DEFPOINTS
 70
     0
 62
     7
  6
CONTINUOUS
  0
ENDTAB
  0
TABLE
  2
STYLE
 70
     4
  0
STYLE
  2
STANDARD
 70
     0
 40
0.0
 41
0.8
 50
0.0
 71
     0
 42
3.5
  3
simplex.shx
  4

  0
STYLE
  2
GREEKS
 70
     0
 40
0.0
 41
0.8
 50
0.0
 71
     0
 42
2.5
  3
SIMPLEX.shx
  4

  0
ENDTAB
  0
TABLE
  2
VIEW
 70
     2
  0
ENDTAB
  0
TABLE
  2
UCS
 70
     0
  0
ENDTAB
  0
TABLE
  2
APPID
 70
    10
  0
APPID
  2
ACAD
 70
     0
  0
APPID
  2
ACAD_NAV_VCDISPLAY
 70
     0
  0
APPID
  2
ACAD_MLEADERVER
 70
     0
  0
APPID
  2
ACADANNOMONITORALERTICONDI
 70
     0
  0
APPID
  2
ACAD_EXEMPT_FROM_CAD_STANDARDS
 70
     0
  0
APPID
  2
ACAD_PSEXT
 70
     0
  0
APPID
  2
ACAD_DSTYLE_DIMRADIAL_EXTENSION
 70
     0
  0
APPID
  2
ACAECLAYERSTANDARD
 70
     0
  0
APPID
  2
ACCMTRANSPARENCY
 70
     0
  0
APPID
  2
ACAD_OBJECT_CHANGE_GUID
 70
     0
  0
ENDTAB
  0
TABLE
  2
DIMSTYLE
 70
     2
  0
DIMSTYLE
  2
STANDARD
 70
     0
  3

  4

  5

  6

  7

 40
1.0
 41
0.18
 42
0.0625
 43
0.38
 44
0.18
 45
0.0
 46
0.0
 47
0.0
 48
0.0
140
0.18
141
0.09
142
0.0
143
25.3999999999999986
144
1.0
145
0.0
146
1.0
147
0.09
 71
     0
 72
     0
 73
     1
 74
     1
 75
     0
 76
     0
 77
     0
 78
     0
170
     0
171
     2
172
     0
173
     0
174
     0
175
     0
176
     0
177
     0
178
     0
  0
ENDTAB
  0
ENDSEC
  0
SECTION
  2
BLOCKS
  0
BLOCK
  8
0
  2
$MODEL_SPACE
 70
     0
 10
0.0
 20
0.0
 30
0.0
  3
$MODEL_SPACE
  1

  0
ENDBLK
  5
4C
  8
0
  0
BLOCK
 67
     1
  8
0
  2
$PAPER_SPACE
 70
     0
 10
0.0
 20
0.0
 30
0.0
  3
$PAPER_SPACE
  1

  0
ENDBLK
  5
4A
 67
     1
  8
0
  0
BLOCK
  8
0
  2
A$C393E50A8
 70
     0
 10
0.0
 20
0.0
 30
0.0
  3
A$C393E50A8
  1

  0
ARC
  5
AD4
  8
0
  6
CONTINUOUS
 62
     3
 10
0.0000000000003335
 20
0.0000000000000239
 30
0.0
 40
66.5
 50
270.0
 51
90.0
  0
CIRCLE
  5
AD5
  8
0
  6
CONTINUOUS
 62
     3
 10
-199.999999999999801
 20
0.0000000000000393
 30
-0.0000000000000568
 40
69.9999999999998863
  0
CIRCLE
  5
AD6
  8
0
  6
CONTINUOUS
 62
     3
 10
-199.999999999999801
 20
0.0000000000000367
 30
-0.0000000000000568
 40
68.9999999999999432
  0
CIRCLE
  5
AD7
  8
0
  6
CONTINUOUS
 62
     3
 10
-199.999999999999801
 20
0.0000000000000343
 30
-0.0000000000000568
 40
63.9999999999998792
  0
CIRCLE
  5
AD8
  8
0
  6
CONTINUOUS
 62
     3
 10
-199.999999999999801
 20
0.0000000000000393
 30
-0.0000000000000568
 40
72.7584447974061135
  0
CIRCLE
  5
AD9
  8
0
  6
CONTINUOUS
 62
     3
 10
-199.999999999999801
 20
0.0000000000000385
 30
-0.0000000000000568
 40
75.9999999999998863
  0
LINE
  5
ADA
  8
0
  6
CONTINUOUS
 62
     3
 10
-25.0628663196523505
 20
-66.4999999999999858
 30
0.0
 11
-163.2066582110296906
 21
-66.4999999999999716
 31
-0.0000000000000284
  0
LINE
  5
ADB
  8
0
  6
CONTINUOUS
 62
     3
 10
-25.0628663196523505
 20
66.5000000000000142
 30
0.0
 11
-163.2066582110296054
 21
66.5000000000000284
 31
-0.0000000000000284
  0
LINE
  5
ADC
  8
0
  6
CONTINUOUS
 62
     3
 10
-25.0628663196523611
 20
-66.4999999999999858
 30
0.0
 11
0.0000000000003055
 21
-66.4999999999999858
 31
0.0
  0
LINE
  5
ADD
  8
0
  6
CONTINUOUS
 62
     3
 10
0.000000000000305
 20
66.5000000000000142
 30
0.0
 11
-25.0628663196523895
 21
66.5000000000000142
 31
0.0
  0
CIRCLE
  5
ADE
  8
0
  6
VERDECKT
 62
     1
 10
0.0000000000000853
 20
0.0000000000000111
 30
0.0
 40
63.3875793553186
  0
CIRCLE
  5
ADF
  8
0
  6
VERDECKT
 62
     1
 10
0.0000000000001345
 20
0.0000000000000168
 30
0.0
 40
64.0
  0
CIRCLE
  5
AE0
  8
0
  6
VERDECKT
 62
     1
 10
0.0000000000000853
 20
0.0000000000000111
 30
0.0
 40
65.8971289491769454
  0
ARC
  5
AE1
  8
0
  6
VERDECKT
 62
     1
 10
0.0000000000003619
 20
0.0000000000000381
 30
0.0
 40
66.5000000000000284
 50
180.0
 51
270.0
  0
ARC
  5
AE2
  8
0
  6
VERDECKT
 62
     1
 10
0.0000000000003335
 20
0.0000000000000026
 30
0.0
 40
66.5000000000000142
 50
89.9999999999999858
 51
180.0
  0
CIRCLE
  5
AE3
  8
0
  6
VERDECKT
 62
     1
 10
-199.999999999999801
 20
0.0000000000000385
 30
-0.0000000000000568
 40
73.4999999999998863
  0
CIRCLE
  5
AE4
  8
0
  6
VERDECKT
 62
     1
 10
-199.999999999999801
 20
0.0000000000000367
 30
-0.0000000000000568
 40
71.4999999999998863
  0
CIRCLE
  5
AE5
  8
0
  6
VERDECKT
 62
     1
 10
-199.999999999999801
 20
0.0000000000000343
 30
-0.0000000000000568
 40
66.4999999999998863
  0
LINE
  5
AE6
  8
0
  6
VERDECKT
 62
     1
 10
-174.9371336803494046
 20
64.0000000000000284
 30
-0.0000000000000568
 11
-199.9999999999996874
 21
64.0000000000000284
 31
-0.0000000000000568
  0
LINE
  5
AE7
  8
0
  6
VERDECKT
 62
     1
 10
-199.999999999999801
 20
-63.9999999999999503
 30
-0.0000000000000568
 11
-174.9371336803494046
 21
-63.9999999999999574
 31
-0.0000000000000568
  0
LINE
  5
AE8
  8
0
  6
VERDECKT
 62
     1
 10
-25.0628663196524109
 20
-63.9999999999999787
 30
0.0
 11
-174.9371336803494899
 21
-63.9999999999999716
 31
-0.0000000000000284
  0
LINE
  5
AE9
  8
0
  6
VERDECKT
 62
     1
 10
-25.0628663196524002
 20
64.0000000000000142
 30
0.0
 11
-174.9371336803494899
 21
64.0000000000000284
 31
-0.0000000000000284
  0
LINE
  5
AEA
  8
0
  6
VERDECKT
 62
     1
 10
-25.0628663196524784
 20
-63.9999999999999787
 30
0.0
 11
0.0000000000001066
 21
-63.9999999999999787
 31
0.0
  0
LINE
  5
AEB
  8
0
  6
VERDECKT
 62
     1
 10
0.0000000000000919
 20
64.0000000000000142
 30
0.0
 11
-25.0628663196525103
 21
64.0000000000000142
 31
0.0
  0
LINE
  5
AEC
  8
0
  6
VERDECKT
 62
     1
 10
-174.9371336803492909
 20
66.5000000000000426
 30
-0.0000000000000568
 11
-199.9999999999998863
 21
66.5000000000000426
 31
-0.0000000000000568
  0
LINE
  5
AED
  8
0
  6
VERDECKT
 62
     1
 10
-199.9999999999998863
 20
-66.4999999999999858
 30
-0.0000000000000568
 11
-174.9371336803492909
 21
-66.4999999999999858
 31
-0.0000000000000568
  0
LINE
  5
AEE
  8
0
  6
VERDECKT
 62
     1
 10
-163.2066582110296906
 20
-66.4999999999999716
 30
-0.0000000000000568
 11
-174.9371336803492056
 21
-66.4999999999999716
 31
-0.0000000000000586
  0
LINE
  5
AEF
  8
0
  6
VERDECKT
 62
     1
 10
-163.2066582110296054
 20
66.5000000000000284
 30
-0.0000000000000568
 11
-174.9371336803492056
 21
66.5000000000000284
 31
-0.0000000000000586
  0
ENDBLK
  5
AF1
  8
0
  0
BLOCK
  8
0
  2
A$C67E231D1
 70
     0
 10
0.0
 20
0.0
 30
0.0
  3
A$C67E231D1
  1

  0
LINE
  5
AF5
  8
0
  6
CONTINUOUS
 62
     3
 10
65.8971289491770449
 20
-0.000000000000004
 30
0.0
 11
-65.8971289491768744
 21
0.000000000000004
 31
0.0
210
0.0
220
1.0
230
-0.0000000000000002
  0
LINE
  5
AF6
  8
0
  6
CONTINUOUS
 62
     3
 10
-272.758444797406014
 20
461.5907421000355271
 30
-0.0000000000001025
 11
-127.2415552025937018
 21
461.5907421000355271
 31
-0.0000000000001025
210
0.0
220
1.0
230
-0.0000000000000002
  0
LINE
  5
AF7
  8
0
  6
CONTINUOUS
 62
     3
 10
-65.8971289491768744
 20
-0.0000000000000004
 30
0.0
 11
-66.4999999999999432
 21
6.8908476427286596
 31
-0.0000000000000015
210
0.0
220
1.0
230
-0.0000000000000002
  0
LINE
  5
AF8
  8
0
  6
CONTINUOUS
 62
     3
 10
65.8971289491770449
 20
-0.0000000000000182
 30
0.0
 11
66.5000000000001137
 21
6.8908476427286418
 31
-0.0000000000000015
210
0.0
220
1.0
230
-0.0000000000000002
  0
LINE
  5
AF9
  8
0
  6
CONTINUOUS
 62
     3
 10
-66.4999999999999432
 20
6.8908476427286596
 30
-0.0000000000000015
 11
-66.4999999999999289
 21
93.88999999999875
 31
-0.0000000000000208
210
0.0
220
1.0
230
-0.0000000000000002
  0
LINE
  5
AFA
  8
0
  6
CONTINUOUS
 62
     3
 10
66.5000000000000995
 20
6.8908476427286391
 30
-0.0000000000000015
 11
66.5000000000001137
 21
93.8900000000010522
 31
-0.0000000000000208
210
0.0
220
1.0
230
-0.0000000000000002
  0
ARC
  5
AFB
  8
0
  6
CONTINUOUS
 62
     3
 10
110.0000000000003979
 20
374.7007421000354839
 30
0.0
 40
156.4999999999994884
210
0.0
220
-0.0000000000000002
230
-1.0
 50
316.1804242593725007
 51
359.9999999999998863
  0
ARC
  5
AFC
  8
0
  6
CONTINUOUS
 62
     3
 10
-110.000000000000199
 20
374.7007421000355976
 30
-0.0000000000000832
 40
23.4999999999997016
 50
180.0000000000005116
 51
223.8195757406265045
  0
LINE
  5
AFD
  8
0
  6
CONTINUOUS
 62
     3
 10
-73.0441928723545715
 20
110.1611586757091032
 30
-0.0000000000000245
 11
-222.9184602330516896
 21
266.3417492171341792
 31
-0.0000000000000591
210
0.0
220
1.0
230
-0.0000000000000002
  0
LINE
  5
AFE
  8
0
  6
CONTINUOUS
 62
     3
 10
22.9184602330498812
 20
202.2489928829039911
 30
-0.0000000000000449
 11
-126.9558071276471054
 21
358.429583424328996
 31
-0.0000000000000796
210
0.0
220
1.0
230
-0.0000000000000002
  0
ARC
  5
AFF
  8
0
  6
CONTINUOUS
 62
     3
 10
90.0000000000046469
 20
93.8899999999980963
 30
0.0
 40
156.5000000000048885
210
0.0
220
-0.0000000000000002
230
-1.0
 50
136.1804242593721028
 51
179.9999999999988916
  0
ARC
  5
B00
  8
0
  6
CONTINUOUS
 62
     3
 10
-90.0000000000047606
 20
93.8899999999980679
 30
-0.0000000000000208
 40
23.5000000000050484
 50
0.0000000000016284
 51
43.8195757406281885
  0
LINE
  5
B01
  8
0
  6
CONTINUOUS
 62
     3
 10
-127.2415552025937018
 20
461.5907421000355271
 30
-0.0000000000001025
 11
-126.810766388901996
 21
460.666912507795189
 31
-0.0000000000001023
210
0.0
220
1.0
230
-0.0000000000000002
  0
LINE
  5
B02
  8
0
  6
CONTINUOUS
 62
     3
 10
-272.758444797406014
 20
461.5907421000355271
 30
-0.0000000000001025
 11
-273.1892336110976771
 21
460.666912507795189
 31
-0.0000000000001023
210
0.0
220
1.0
230
-0.0000000000000002
  0
ARC
  5
B03
  8
0
  6
CONTINUOUS
 62
     3
 10
245.9999999999990052
 20
447.988364655570706
 30
0.0
 40
30.0000000000007709
210
0.0
220
-0.0000000000000002
230
-1.0
 50
0.0000000000008778
 51
25.0000000000067004
  0
ARC
  5
B04
  8
0
  6
CONTINUOUS
 62
     3
 10
154.000000000000199
 20
447.9883646555708765
 30
0.0
 40
30.0000000000002203
210
0.0
220
-0.0000000000000002
230
-1.0
 50
154.9999999999930935
 51
179.9999999999994031
  0
LINE
  5
B05
  8
0
  6
CONTINUOUS
 62
     3
 10
-124.0
 20
447.9883646555712176
 30
-0.0000000000000995
 11
-124.0
 21
438.8817421000354102
 31
-0.0000000000000975
210
0.0
220
1.0
230
-0.0000000000000002
  0
LINE
  5
B06
  8
0
  6
CONTINUOUS
 62
     3
 10
-275.9999999999997726
 20
447.9883646555712176
 30
-0.0000000000000995
 11
-275.9999999999997726
 21
438.8817421000354102
 31
-0.0000000000000975
210
0.0
220
1.0
230
-0.0000000000000002
  0
ARC
  5
B07
  8
0
  6
CONTINUOUS
 62
     3
 10
245.9974501330214878
 20
438.8829315104031821
 30
0.0
 40
30.0025498905545582
210
0.0
220
-0.0000000000000002
230
-1.0
 50
334.9928416634439259
 51
359.99772858658838
  0
ARC
  5
B08
  8
0
  6
CONTINUOUS
 62
     3
 10
154.0025498669785975
 20
438.8829315104032958
 30
0.0
 40
30.0025498905548282
210
0.0
220
-0.0000000000000002
230
-1.0
 50
180.0022714134115915
 51
205.0071583365559036
  0
ARC
  5
B09
  8
0
  6
CONTINUOUS
 62
     3
 10
289.4999999999985221
 20
418.5907421000355839
 30
0.0
 40
17.999999999998689
210
0.0
220
-0.0000000000000002
230
-1.0
 50
154.9928416634429027
 51
180.0000000000003126
  0
ARC
  5
B0A
  8
0
  6
CONTINUOUS
 62
     3
 10
110.500000000000199
 20
418.5907421000352997
 30
0.0
 40
17.999999999999801
210
0.0
220
-0.0000000000000002
230
-1.0
 50
0.0000000000003689
 51
25.0071583365562589
  0
LINE
  5
B0B
  8
0
  6
CONTINUOUS
 62
     3
 10
-128.5
 20
418.5907421000355271
 30
-0.0000000000000929
 11
-128.5
 21
395.0594615227064992
 31
-0.0000000000000877
210
0.0
220
1.0
230
-0.0000000000000002
  0
LINE
  5
B0C
  8
0
  6
CONTINUOUS
 62
     3
 10
-271.4999999999997726
 20
418.5907421000355271
 30
-0.0000000000000929
 11
-271.4999999999997726
 21
395.0594615227064992
 31
-0.0000000000000877
210
0.0
220
1.0
230
-0.0000000000000002
  0
ARC
  5
B0D
  8
0
  6
CONTINUOUS
 62
     3
 10
253.5000000000005969
 20
395.059461522706215
 30
0.0
 40
17.9999999999991616
210
0.0
220
-0.0000000000000002
230
-1.0
 50
325.2280559680502279
 51
0.0000000000010877
  0
ARC
  5
B0E
  8
0
  6
CONTINUOUS
 62
     3
 10
146.4999999999994031
 20
395.0594615227063855
 30
0.0
 40
17.99999999999946
210
0.0
220
-0.0000000000000002
230
-1.0
 50
179.9999999999994031
 51
214.7719440319498005
  0
ARC
  5
B0F
  8
0
  6
CONTINUOUS
 62
     3
 10
276.4999999999985789
 20
379.0907421000355271
 30
0.0
 40
9.9999999999988471
210
0.0
220
-0.0000000000000002
230
-1.0
 50
145.2280559680501142
 51
180.0
  0
ARC
  5
B10
  8
0
  6
CONTINUOUS
 62
     3
 10
123.5000000000010942
 20
379.0907421000355271
 30
0.0
 40
9.9999999999988773
210
0.0
220
-0.0000000000000002
230
-1.0
 50
0.0
 51
34.771944031949829
  0
LINE
  5
B11
  8
0
  6
CONTINUOUS
 62
     3
 10
-133.5
 20
379.0907421000355271
 30
-0.0000000000000842
 11
-133.5
 21
374.700742100035427
 31
-0.0000000000000832
210
0.0
220
1.0
230
-0.0000000000000002
  0
LINE
  5
B12
  8
0
  6
CONTINUOUS
 62
     3
 10
-266.4999999999997726
 20
379.0907421000355271
 30
-0.0000000000000842
 11
-266.4999999999997726
 21
374.700742100035427
 31
-0.0000000000000832
210
0.0
220
1.0
230
-0.0000000000000002
  0
LINE
  5
B13
  8
0
  6
VERDECKT
 62
     1
 10
-63.3875793553185289
 20
0.0000000000002247
 30
0.0
 11
-63.9999999999999716
 21
6.9999999999997717
 31
-0.0000000000000016
210
0.0
220
1.0
230
-0.0000000000000002
  0
LINE
  5
B14
  8
0
  6
VERDECKT
 62
     1
 10
63.3875793553186924
 20
-0.0000000000000178
 30
0.0
 11
64.0000000000001421
 21
6.999999999999754
 31
-0.0000000000000016
210
0.0
220
1.0
230
-0.0000000000000002
  0
LINE
  5
B15
  8
0
  6
VERDECKT
 62
     1
 10
-63.9999999999999503
 20
6.9999999999997744
 30
-0.0000000000000016
 11
-63.9999999999999289
 21
93.88999999999875
 31
-0.0000000000000208
210
0.0
220
1.0
230
-0.0000000000000002
  0
LINE
  5
B16
  8
0
  6
VERDECKT
 62
     1
 10
64.0000000000000995
 20
6.9999999999997602
 30
-0.0000000000000016
 11
64.0000000000001137
 21
93.8900000000009953
 31
-0.0000000000000208
210
0.0
220
1.0
230
-0.0000000000000002
  0
ARC
  5
B17
  8
0
  6
VERDECKT
 62
     1
 10
110.0
 20
374.7007421000358818
 30
0.0
 40
153.9999999999998863
210
0.0
220
-0.0000000000000002
230
-1.0
 50
316.1804242593722734
 51
359.9999999999997158
  0
ARC
  5
B18
  8
0
  6
VERDECKT
 62
     1
 10
-109.9999999999999005
 20
374.7007421000358818
 30
-0.0000000000000832
 40
25.9999999999999183
 50
180.0000000000011084
 51
223.8195757406251971
  0
LINE
  5
B19
  8
0
  6
VERDECKT
 62
     1
 10
-71.2403836034558111
 20
111.8921330029117058
 30
-0.0000000000000248
 11
-221.1146509641529008
 21
268.0727235443367817
 31
-0.0000000000000595
210
0.0
220
1.0
230
-0.0000000000000002
  0
LINE
  5
B1A
  8
0
  6
VERDECKT
 62
     1
 10
21.1146509641510711
 20
200.5180185557013033
 30
-0.0000000000000445
 11
-128.7596163965459937
 21
356.6986090971263934
 31
-0.0000000000000792
210
0.0
220
1.0
230
-0.0000000000000002
  0
ARC
  5
B1B
  8
0
  6
VERDECKT
 62
     1
 10
90.0000000000043343
 20
93.8899999999982953
 30
0.0
 40
154.0000000000044054
210
0.0
220
-0.0000000000000002
230
-1.0
 50
136.1804242593719039
 51
179.9999999999990052
  0
ARC
  5
B1C
  8
0
  6
VERDECKT
 62
     1
 10
-90.0000000000044338
 20
93.8899999999982668
 30
-0.0000000000000208
 40
26.0000000000045191
 50
0.0000000000010687
 51
43.8195757406276769
  0
LINE
  5
B1D
  8
0
  6
VERDECKT
 62
     1
 10
-130.0
 20
461.5907421000355271
 30
-0.0000000000001025
 11
-129.076535856491887
 21
459.6103668534399844
 31
-0.0000000000001021
210
0.0
220
1.0
230
-0.0000000000000002
  0
LINE
  5
B1E
  8
0
  6
VERDECKT
 62
     1
 10
-269.9999999999997726
 20
461.5907421000355271
 30
-0.0000000000001025
 11
-270.9234641435078856
 21
459.6103668534399844
 31
-0.0000000000001021
210
0.0
220
1.0
230
-0.0000000000000002
  0
ARC
  5
B1F
  8
0
  6
VERDECKT
 62
     1
 10
245.999999999999801
 20
447.9883646555712744
 30
0.0
 40
27.5
210
0.0
220
-0.0000000000000002
230
-1.0
 50
359.9999999999998863
 51
24.99999999999892
  0
ARC
  5
B20
  8
0
  6
VERDECKT
 62
     1
 10
154.0
 20
447.9883646555712744
 30
0.0
 40
27.5000000000000213
210
0.0
220
-0.0000000000000002
230
-1.0
 50
155.0000000000011084
 51
180.0000000000001137
  0
LINE
  5
B21
  8
0
  6
VERDECKT
 62
     1
 10
-126.5
 20
447.9883646555712176
 30
-0.0000000000000995
 11
-126.5
 21
438.8817421000354102
 31
-0.0000000000000975
210
0.0
220
1.0
230
-0.0000000000000002
  0
LINE
  5
B22
  8
0
  6
VERDECKT
 62
     1
 10
-273.4999999999997726
 20
447.9883646555712176
 30
-0.0000000000000995
 11
-273.4999999999997726
 21
438.8817421000354102
 31
-0.0000000000000975
210
0.0
220
1.0
230
-0.0000000000000002
  0
ARC
  5
B23
  8
0
  6
VERDECKT
 62
     1
 10
245.1489776542119046
 20
439.071743165206783
 30
0.0
 40
28.3516590071220307
210
0.0
220
-0.0000000000000002
230
-1.0
 50
335.2128276928079913
 51
359.6160245641311235
  0
ARC
  5
B24
  8
0
  6
VERDECKT
 62
     1
 10
154.8510223457871859
 20
439.0717431652067262
 30
0.0
 40
28.35165900712148
210
0.0
220
-0.0000000000000002
230
-1.0
 50
180.383975435868706
 51
204.7871723071922929
  0
ARC
  5
B25
  8
0
  6
VERDECKT
 62
     1
 10
289.5000000000002274
 20
418.5907421000352997
 30
0.0
 40
20.5000000000003411
210
0.0
220
-0.0000000000000002
230
-1.0
 50
155.2128276928077071
 51
179.9999999999994884
  0
ARC
  5
B26
  8
0
  6
VERDECKT
 62
     1
 10
110.500000000000199
 20
418.5907421000352997
 30
0.0
 40
20.4999999999997584
210
0.0
220
-0.0000000000000002
230
-1.0
 50
0.0000000000003181
 51
24.7871723071928685
  0
LINE
  5
B27
  8
0
  6
VERDECKT
 62
     1
 10
-131.0
 20
418.5907421000355271
 30
-0.0000000000000929
 11
-131.0
 21
395.0594615227064992
 31
-0.0000000000000877
210
0.0
220
1.0
230
-0.0000000000000002
  0
LINE
  5
B28
  8
0
  6
VERDECKT
 62
     1
 10
-268.9999999999997726
 20
418.5907421000355271
 30
-0.0000000000000929
 11
-268.9999999999997726
 21
395.0594615227064992
 31
-0.0000000000000877
210
0.0
220
1.0
230
-0.0000000000000002
  0
ARC
  5
B29
  8
0
  6
VERDECKT
 62
     1
 10
253.4999999999992895
 20
395.0594615227068971
 30
0.0
 40
15.5000000000005205
210
0.0
220
-0.0000000000000002
230
-1.0
 50
325.2280559680507963
 51
359.9999999999985789
  0
ARC
  5
B2A
  8
0
  6
VERDECKT
 62
     1
 10
146.5000000000003979
 20
395.0594615227068971
 30
0.0
 40
15.50000000000054
210
0.0
220
-0.0000000000000002
230
-1.0
 50
180.0000000000013927
 51
214.77194403194909
  0
ARC
  5
B2B
  8
0
  6
VERDECKT
 62
     1
 10
276.4999999999980105
 20
379.0907421000358113
 30
0.0
 40
12.4999999999982006
210
0.0
220
-0.0000000000000002
230
-1.0
 50
145.22805596804929
 51
180.0000000000015064
  0
ARC
  5
B2C
  8
0
  6
VERDECKT
 62
     1
 10
123.5000000000018048
 20
379.0907421000356976
 30
0.0
 40
12.4999999999982201
210
0.0
220
-0.0000000000000002
230
-1.0
 50
359.9999999999986926
 51
34.7719440319509374
  0
LINE
  5
B2D
  8
0
  6
VERDECKT
 62
     1
 10
-136.0
 20
379.0907421000355271
 30
-0.0000000000000842
 11
-136.0
 21
374.700742100035427
 31
-0.0000000000000832
210
0.0
220
1.0
230
-0.0000000000000002
  0
LINE
  5
B2E
  8
0
  6
VERDECKT
 62
     1
 10
-263.9999999999997726
 20
379.0907421000355271
 30
-0.0000000000000842
 11
-263.9999999999997726
 21
374.700742100035427
 31
-0.0000000000000832
210
0.0
220
1.0
230
-0.0000000000000002
  0
ENDBLK
  5
B30
  8
0
  0
ENDSEC
  0
SECTION
  2
ENTITIES
  0
TEXT
  5
6DD
  8
VOLL
 10
1025.8208055359409627
 20
561.6396721714088471
 30
0.0
 40
1.8
  1

 50
270.0
  7
GREEKS
  0
INSERT
  5
AF2
  8
0
  2
A$C393E50A8
 10
0.0000000000000853
 20
0.0000000000000115
 30
6.8908476427286578
  0
INSERT
  5
B31
  8
0
  2
A$C67E231D1
 10
0.0000000000000853
 20
176.6344230875305925
 30
6.9999999999997717
  0
VIEWPORT
  5
8C1
 67
     1
  8
0
 10
6.1788227924688801
 20
3.9994354451767111
 30
0.0
 40
15.7185354363753405
 41
8.3491690215760244
 68
     1
 69
     1
1001
ACAD
1000
MVIEW
1002
{
1070
    16
1010
0.0
1020
0.0
1030
0.0
1010
0.0
1020
0.0
1030
1.0
1040
0.0
1040
8.3491690215760244
1040
6.1788227924688801
1040
3.9994354451767111
1040
50.0
1040
0.0
1040
0.0
1070
     0
1070
  1500
1070
     1
1070
     1
1070
     0
1070
     0
1070
     0
1070
     0
1040
0.0
1040
0.0
1040
0.0
1040
10.0
1040
10.0
1040
10.0
1040
10.0
1070
     0
1002
{
1002
}
1002
}
  0
ENDSEC
  0
EOF
