  0
SECTION
  2
HEADER
  9
$ACADVER
  1
AC1009
  9
$INSBASE
 10
214.1896305907800127
 20
83.9878893283155321
 30
0.0
  9
$EXTMIN
 10
-276.0939773708964822
 20
-59.030333634937513
 30
-0.0134267099360841
  9
$EXTMAX
 10
76.0806914851154943
 20
577.3687195779816648
 30
0.0201421138131082
  9
$LIMMIN
 10
0.0
 20
0.0
  9
$LIMMAX
 10
840.0
 20
594.0
  9
$ORTHOMODE
 70
     1
  9
$REGENMODE
 70
     1
  9
$FILLMODE
 70
     1
  9
$QTEXTMODE
 70
     0
  9
$MIRRTEXT
 70
     1
  9
$DRAGMODE
 70
     2
  9
$LTSCALE
 40
20.0
  9
$OSMODE
 70
  1327
  9
$ATTMODE
 70
     1
  9
$TEXTSIZE
 40
3.5
  9
$TRACEWID
 40
1.0
  9
$TEXTSTYLE
  7
STANDARD
  9
$CLAYER
  8
0
  9
$CELTYPE
  6
BYLAYER
  9
$CECOLOR
 62
   256
  9
$DIMSCALE
 40
2.0
  9
$DIMASZ
 40
3.5
  9
$DIMEXO
 40
1.0
  9
$DIMDLI
 40
7.0
  9
$DIMRND
 40
0.0
  9
$DIMDLE
 40
0.0
  9
$DIMEXE
 40
1.0
  9
$DIMTP
 40
8.0
  9
$DIMTM
 40
8.0
  9
$DIMTXT
 40
3.5
  9
$DIMCEN
 40
1.5
  9
$DIMTSZ
 40
0.0
  9
$DIMTOL
 70
     0
  9
$DIMLIM
 70
     0
  9
$DIMTIH
 70
     0
  9
$DIMTOH
 70
     0
  9
$DIMSE1
 70
     0
  9
$DIMSE2
 70
     0
  9
$DIMTAD
 70
     1
  9
$DIMZIN
 70
     8
  9
$DIMBLK
  1

  9
$DIMASO
 70
     1
  9
$DIMSHO
 70
     0
  9
$DIMPOST
  1

  9
$DIMAPOST
  1

  9
$DIMALT
 70
     0
  9
$DIMALTD
 70
     2
  9
$DIMALTF
 40
25.3999999999999986
  9
$DIMLFAC
 40
1.0
  9
$DIMTOFL
 70
     1
  9
$DIMTVP
 40
0.5714285714285714
  9
$DIMTIX
 70
     0
  9
$DIMSOXD
 70
     0
  9
$DIMSAH
 70
     0
  9
$DIMBLK1
  1

  9
$DIMBLK2
  1

  9
$DIMSTYLE
  2
STANDARD
  9
$DIMCLRD
 70
     0
  9
$DIMCLRE
 70
     0
  9
$DIMCLRT
 70
     1
  9
$DIMTFAC
 40
0.5
  9
$DIMGAP
 40
1.5
  9
$LUNITS
 70
     2
  9
$LUPREC
 70
     1
  9
$SKETCHINC
 40
1.0
  9
$FILLETRAD
 40
0.0
  9
$AUNITS
 70
     0
  9
$AUPREC
 70
     0
  9
$MENU
  1
ACAD
  9
$ELEVATION
 40
0.0
  9
$PELEVATION
 40
0.0
  9
$THICKNESS
 40
0.0
  9
$LIMCHECK
 70
     0
  9
$BLIPMODE
 70
     0
  9
$CHAMFERA
 40
0.5
  9
$CHAMFERB
 40
0.5
  9
$SKPOLY
 70
     0
  9
$TDCREATE
 40
2450063.5188310188241303
  9
$TDUPDATE
 40
2458382.6046527777798474
  9
$TDINDWG
 40
0.1784700116
  9
$TDUSRTIMER
 40
0.1784700116
  9
$USRTIMER
 70
     1
  9
$ANGBASE
 50
0.0
  9
$ANGDIR
 70
     0
  9
$PDMODE
 70
     0
  9
$PDSIZE
 40
0.0
  9
$PLINEWID
 40
0.0
  9
$COORDS
 70
     1
  9
$SPLFRAME
 70
     0
  9
$SPLINETYPE
 70
     6
  9
$SPLINESEGS
 70
     8
  9
$ATTDIA
 70
     0
  9
$ATTREQ
 70
     0
  9
$HANDLING
 70
     1
  9
$HANDSEED
  5
BD5
  9
$SURFTAB1
 70
     6
  9
$SURFTAB2
 70
     6
  9
$SURFTYPE
 70
     6
  9
$SURFU
 70
     6
  9
$SURFV
 70
     6
  9
$UCSNAME
  2

  9
$UCSORG
 10
0.0
 20
0.0
 30
0.0
  9
$UCSXDIR
 10
1.0
 20
0.0
 30
0.0
  9
$UCSYDIR
 10
0.0
 20
1.0
 30
0.0
  9
$PUCSNAME
  2

  9
$PUCSORG
 10
0.0
 20
0.0
 30
0.0
  9
$PUCSXDIR
 10
1.0
 20
0.0
 30
0.0
  9
$PUCSYDIR
 10
0.0
 20
1.0
 30
0.0
  9
$USERI1
 70
     0
  9
$USERI2
 70
     0
  9
$USERI3
 70
     0
  9
$USERI4
 70
     0
  9
$USERI5
 70
     0
  9
$USERR1
 40
0.0
  9
$USERR2
 40
0.0
  9
$USERR3
 40
0.0
  9
$USERR4
 40
0.0
  9
$USERR5
 40
0.0
  9
$WORLDVIEW
 70
     1
  9
$SHADEDGE
 70
     3
  9
$SHADEDIF
 70
    70
  9
$TILEMODE
 70
     1
  9
$MAXACTVP
 70
    16
  9
$PLIMCHECK
 70
     0
  9
$PEXTMIN
 10
-0.1273283685276638
 20
-0.1247139394235717
 30
-0.0000000000000058
  9
$PEXTMAX
 10
12.0618944957819991
 20
8.3652884157935645
 30
0.0000000000000104
  9
$PLIMMIN
 10
-0.2500002402958907
 20
-0.2499999962453767
  9
$PLIMMAX
 10
10.7499995194082203
 20
8.2499997634587334
  9
$UNITMODE
 70
     0
  9
$VISRETAIN
 70
     0
  9
$PLINEGEN
 70
     0
  9
$PSLTSCALE
 70
     0
  0
ENDSEC
  0
SECTION
  2
TABLES
  0
TABLE
  2
VPORT
 70
     1
  0
VPORT
  2
*ACTIVE
 70
     0
 10
0.0
 20
0.0
 11
1.0
 21
1.0
 12
3.9933570571094492
 22
93.1691929715220937
 13
0.0
 23
0.0
 14
2.5
 24
2.5
 15
10.0
 25
10.0
 16
-0.0000000000003979
 26
0.0
 36
1814.6689719678709025
 17
-104.0
 27
166.0
 37
219.9999999999998863
 40
641.160143386581808
 41
1.8826466916354549
 42
50.0
 43
0.0
 44
0.0
 50
0.0
 51
0.0
 71
     0
 72
   500
 73
     1
 74
     0
 75
     0
 76
     0
 77
     0
 78
     0
  0
ENDTAB
  0
TABLE
  2
LTYPE
 70
     3
  0
LTYPE
  2
CONTINUOUS
 70
     0
  3
Solid line
 72
    65
 73
     0
 40
0.0
  0
LTYPE
  2
VERDECKT
 70
     0
  3
Verdeckt __ __ __ __ __ __ __ __ __ __ __ __ __
 72
    65
 73
     2
 40
0.375
 49
0.25
 49
-0.125
  0
ENDTAB
  0
TABLE
  2
LAYER
 70
    10
  0
LAYER
  2
0
 70
     0
 62
     7
  6
CONTINUOUS
  0
LAYER
  2
VOLL
 70
     0
 62
     1
  6
CONTINUOUS
  0
LAYER
  2
BEM
 70
     0
 62
     7
  6
CONTINUOUS
  0
LAYER
  2
DEFPOINTS
 70
     0
 62
     7
  6
CONTINUOUS
  0
LAYER
  2
TEXT
 70
     0
 62
     7
  6
CONTINUOUS
  0
ENDTAB
  0
TABLE
  2
STYLE
 70
     5
  0
STYLE
  2
STANDARD
 70
     0
 40
0.0
 41
0.8
 50
0.0
 71
     0
 42
3.5
  3
simplex.shx
  4

  0
STYLE
  2
GREEKS
 70
     0
 40
0.0
 41
0.8
 50
0.0
 71
     0
 42
3.5
  3
SIMPLEX.shx
  4

  0
ENDTAB
  0
TABLE
  2
VIEW
 70
     4
  0
ENDTAB
  0
TABLE
  2
UCS
 70
     0
  0
ENDTAB
  0
TABLE
  2
APPID
 70
     8
  0
APPID
  2
ACAD
 70
     0
  0
APPID
  2
ACAD_NAV_VCDISPLAY
 70
     0
  0
APPID
  2
ACAECLAYERSTANDARD
 70
     0
  0
APPID
  2
ACCMTRANSPARENCY
 70
     0
  0
APPID
  2
ACAD_PSEXT
 70
     0
  0
APPID
  2
ACAD_EXEMPT_FROM_CAD_STANDARDS
 70
     0
  0
APPID
  2
ACAD_MLEADERVER
 70
     0
  0
APPID
  2
ACAD_OBJECT_CHANGE_GUID
 70
     0
  0
ENDTAB
  0
TABLE
  2
DIMSTYLE
 70
     3
  0
DIMSTYLE
  2
STANDARD
 70
     0
  3

  4

  5

  6

  7

 40
1.0
 41
0.18
 42
0.0625
 43
0.38
 44
0.18
 45
0.0
 46
0.0
 47
0.0
 48
0.0
140
0.18
141
0.09
142
0.0
143
25.3999999999999986
144
1.0
145
0.0
146
1.0
147
0.09
 71
     0
 72
     0
 73
     1
 74
     1
 75
     0
 76
     0
 77
     0
 78
     0
170
     0
171
     2
172
     0
173
     0
174
     0
175
     0
176
     0
177
     0
178
     0
  0
ENDTAB
  0
ENDSEC
  0
SECTION
  2
BLOCKS
  0
BLOCK
  8
0
  2
$MODEL_SPACE
 70
     0
 10
0.0
 20
0.0
 30
0.0
  3
$MODEL_SPACE
  1

  0
ENDBLK
  5
4A
  8
0
  0
BLOCK
 67
     1
  8
0
  2
$PAPER_SPACE
 70
     0
 10
0.0
 20
0.0
 30
0.0
  3
$PAPER_SPACE
  1

  0
ENDBLK
  5
48
 67
     1
  8
0
  0
BLOCK
  8
0
  2
A$C7F296944
 70
     0
 10
0.0
 20
0.0
 30
0.0
  3
A$C7F296944
  1

  0
ARC
  5
B28
  8
0
  6
CONTINUOUS
 62
     3
 10
0.0000000000000208
 20
-0.0000000000000025
 30
0.0
 40
51.0
 50
270.0
 51
90.0
  0
CIRCLE
  5
B29
  8
0
  6
CONTINUOUS
 62
     3
 10
-199.9999999999996874
 20
0.0000000000000308
 30
-0.0000000000000568
 40
53.5
  0
CIRCLE
  5
B2A
  8
0
  6
CONTINUOUS
 62
     3
 10
-199.9999999999996021
 20
0.0000000000000281
 30
-0.0000000000000568
 40
53.0000000000000924
  0
CIRCLE
  5
B2B
  8
0
  6
CONTINUOUS
 62
     3
 10
-199.9999999999996021
 20
0.0000000000000262
 30
-0.0000000000000568
 40
49.0000000000001492
  0
CIRCLE
  5
B2C
  8
0
  6
CONTINUOUS
 62
     3
 10
-199.9999999999996874
 20
0.0000000000000301
 30
-0.0000000000000568
 40
59.0000000000000426
  0
CIRCLE
  5
B2D
  8
0
  6
CONTINUOUS
 62
     3
 10
-199.9999999999996874
 20
0.0000000000000308
 30
-0.0000000000000568
 40
55.7067558379252574
  0
LINE
  5
B2E
  8
0
  6
CONTINUOUS
 62
     3
 10
-20.5025253169414796
 20
-51.0000000000000071
 30
0.0
 11
-170.335206051617007
 21
-50.9999999999999787
 31
-0.0000000000000284
  0
LINE
  5
B2F
  8
0
  6
CONTINUOUS
 62
     3
 10
-20.5025253169414583
 20
51.0000000000000071
 30
0.0
 11
-170.335206051617007
 21
51.0000000000000284
 31
-0.0000000000000284
  0
LINE
  5
B30
  8
0
  6
CONTINUOUS
 62
     3
 10
-20.5025253169416111
 20
-51.0
 30
0.0
 11
0.0000000000000213
 21
-51.0000000000000071
 31
0.0
  0
LINE
  5
B31
  8
0
  6
CONTINUOUS
 62
     3
 10
0.0000000000000208
 20
50.9999999999999929
 30
0.0
 11
-20.5025253169416111
 21
51.0
 31
0.0
  0
CIRCLE
  5
B32
  8
0
  6
VERDECKT
 62
     1
 10
0.0000000000000568
 20
-0.0000000000000084
 30
0.0
 40
47.9424963626022205
  0
ARC
  5
B33
  8
0
  6
VERDECKT
 62
     1
 10
-0.0000000000000076
 20
-0.0000000000000025
 30
0.0
 40
48.9999999999999929
 50
270.0
 51
90.0
  0
CIRCLE
  5
B34
  8
0
  6
VERDECKT
 62
     1
 10
0.0000000000000568
 20
-0.0000000000000084
 30
0.0
 40
49.9501360376888783
  0
ARC
  5
B35
  8
0
  6
VERDECKT
 62
     1
 10
0.0000000000000208
 20
-0.0000000000000239
 30
0.0
 40
51.0
 50
180.0
 51
270.0
  0
ARC
  5
B36
  8
0
  6
VERDECKT
 62
     1
 10
-0.0000000000000076
 20
0.0000000000000223
 30
0.0
 40
50.9999999999999716
 50
89.9999999999999858
 51
180.0
  0
CIRCLE
  5
B37
  8
0
  6
VERDECKT
 62
     1
 10
-199.9999999999996874
 20
0.0000000000000301
 30
-0.0000000000000568
 40
57.0000000000000284
  0
CIRCLE
  5
B38
  8
0
  6
VERDECKT
 62
     1
 10
-199.9999999999996021
 20
0.0000000000000262
 30
-0.0000000000000568
 40
51.0000000000001492
  0
CIRCLE
  5
B39
  8
0
  6
VERDECKT
 62
     1
 10
-199.9999999999996021
 20
0.0000000000000281
 30
-0.0000000000000568
 40
55.0000000000000995
  0
LINE
  5
B3A
  8
0
  6
VERDECKT
 62
     1
 10
-179.4974746830621939
 20
49.0000000000000284
 30
-0.0000000000000568
 11
-199.999999999999801
 21
49.0000000000000284
 31
-0.0000000000000568
  0
LINE
  5
B3B
  8
0
  6
VERDECKT
 62
     1
 10
-199.999999999999801
 20
-48.9999999999999787
 30
-0.0000000000000568
 11
-179.4974746830621939
 21
-48.9999999999999787
 31
-0.0000000000000568
  0
LINE
  5
B3C
  8
0
  6
VERDECKT
 62
     1
 10
-20.5025253169418207
 20
-49.0000000000000071
 30
0.0
 11
-179.4974746830621939
 21
-48.9999999999999787
 31
-0.0000000000000284
  0
LINE
  5
B3D
  8
0
  6
VERDECKT
 62
     1
 10
-20.5025253169417994
 20
49.0000000000000071
 30
0.0
 11
-179.4974746830621939
 21
49.0000000000000284
 31
-0.0000000000000284
  0
LINE
  5
B3E
  8
0
  6
VERDECKT
 62
     1
 10
-20.5025253169419202
 20
-49.0
 30
0.0
 11
-0.0000000000000071
 21
-49.0000000000000071
 31
0.0
  0
LINE
  5
B3F
  8
0
  6
VERDECKT
 62
     1
 10
-0.0000000000000076
 20
48.9999999999999929
 30
0.0
 11
-20.5025253169419308
 21
49.0
 31
0.0
  0
LINE
  5
B40
  8
0
  6
VERDECKT
 62
     1
 10
-179.497474683061796
 20
51.0000000000000426
 30
-0.0000000000000568
 11
-199.9999999999996874
 21
51.0000000000000426
 31
-0.0000000000000568
  0
LINE
  5
B41
  8
0
  6
VERDECKT
 62
     1
 10
-199.9999999999996874
 20
-50.9999999999999929
 30
-0.0000000000000568
 11
-179.497474683061796
 21
-51.0
 31
-0.0000000000000568
  0
LINE
  5
B42
  8
0
  6
VERDECKT
 62
     1
 10
-170.335206051617007
 20
-50.9999999999999787
 30
-0.0000000000000568
 11
-179.4974746830621086
 21
-50.9999999999999787
 31
-0.0000000000000586
  0
LINE
  5
B43
  8
0
  6
VERDECKT
 62
     1
 10
-170.335206051617007
 20
51.0000000000000284
 30
-0.0000000000000568
 11
-179.4974746830621086
 21
51.0000000000000284
 31
-0.0000000000000586
  0
ENDBLK
  5
B45
  8
0
  0
BLOCK
  8
0
  2
A$C7AF949A0
 70
     0
 10
0.0
 20
0.0
 30
0.0
  3
A$C7AF949A0
  1

  0
LINE
  5
B49
  8
0
  6
CONTINUOUS
 62
     3
 10
49.9501360376888783
 20
0.0
 30
0.0
 11
-49.9501360376888215
 21
0.0
 31
0.0
210
0.0
220
1.0
230
0.0000000000000002
  0
LINE
  5
B4A
  8
0
  6
CONTINUOUS
 62
     3
 10
-144.2932441620745863
 20
439.9999999999969873
 30
0.0000000000000977
 11
-255.7067558379251011
 21
439.9999999999969873
 31
0.0000000000000977
210
0.0
220
1.0
230
0.0000000000000002
  0
LINE
  5
B4B
  8
0
  6
CONTINUOUS
 62
     3
 10
-49.9501360376887931
 20
0.0000000000000036
 30
0.0
 11
-50.9999999999999076
 21
12.0
 31
0.0000000000000027
210
0.0
220
1.0
230
0.0000000000000002
  0
LINE
  5
B4C
  8
0
  6
CONTINUOUS
 62
     3
 10
49.9501360376889068
 20
0.0000000000000329
 30
0.0
 11
51.0000000000000213
 21
12.0000000000000302
 31
0.0000000000000027
210
0.0
220
1.0
230
0.0000000000000002
  0
LINE
  5
B4D
  8
0
  6
CONTINUOUS
 62
     3
 10
-50.9999999999999716
 20
12.0
 30
0.0000000000000027
 11
-51.0000000000000213
 21
94.9999999999954525
 31
0.0000000000000211
210
0.0
220
1.0
230
0.0000000000000002
  0
LINE
  5
B4E
  8
0
  6
CONTINUOUS
 62
     3
 10
51.0000000000000782
 20
12.0000000000000302
 30
0.0000000000000027
 11
51.0000000000000426
 21
94.9999999999994742
 31
0.0000000000000211
210
0.0
220
1.0
230
0.0000000000000002
  0
ARC
  5
B4F
  8
0
  6
CONTINUOUS
 62
     3
 10
140.9999999999994031
 20
363.9660074801290079
 30
0.0
 40
8.0000000000000284
210
0.0
220
0.0000000000000002
230
-1.0
 50
0.0
 51
34.3011527567875092
  0
ARC
  5
B50
  8
0
  6
CONTINUOUS
 62
     3
 10
258.9999999999997158
 20
363.9660074801287806
 30
0.0
 40
7.9999999999998259
210
0.0
220
0.0000000000000002
230
-1.0
 50
145.6988472432097979
 51
179.9999999999978968
  0
ARC
  5
B51
  8
0
  6
CONTINUOUS
 62
     3
 10
160.0000000000036948
 20
376.9274888769459153
 30
0.0
 40
15.0000000000040092
210
0.0
220
0.0000000000000002
230
-1.0
 50
180.0000000000042064
 51
214.3011527567875021
  0
ARC
  5
B52
  8
0
  6
CONTINUOUS
 62
     3
 10
239.9999999999957083
 20
376.9274888769456879
 30
0.0
 40
15.0000000000040092
210
0.0
220
0.0000000000000002
230
-1.0
 50
325.6988472432121853
 51
359.9999999999956799
  0
LINE
  5
B53
  8
0
  6
CONTINUOUS
 62
     3
 10
-254.999999999999801
 20
376.9274888769446079
 30
0.0000000000000837
 11
-254.999999999999801
 21
395.4999999999969873
 31
0.0000000000000878
210
0.0
220
1.0
230
0.0000000000000002
  0
LINE
  5
B54
  8
0
  6
CONTINUOUS
 62
     3
 10
-144.9999999999994884
 20
376.9274888769447216
 30
0.0000000000000837
 11
-144.9999999999996021
 21
395.4999999999972147
 31
0.0000000000000878
210
0.0
220
1.0
230
0.0000000000000002
  0
ARC
  5
B55
  8
0
  6
CONTINUOUS
 62
     3
 10
132.9999999999986926
 20
395.4999999999972147
 30
0.0
 40
12.0000000000008509
210
0.0
220
0.0000000000000002
230
-1.0
 50
359.9999999999997158
 51
26.8880476177269685
  0
ARC
  5
B56
  8
0
  6
CONTINUOUS
 62
     3
 10
266.9999999999996021
 20
395.4999999999972147
 30
0.0
 40
11.9999999999997904
210
0.0
220
0.0000000000000002
230
-1.0
 50
153.1119523822713973
 51
180.0000000000007958
  0
ARC
  5
B57
  8
0
  6
CONTINUOUS
 62
     3
 10
165.9999999999905924
 20
412.2332005306764131
 30
0.0
 40
24.9999999999909015
210
0.0
220
0.0000000000000002
230
-1.0
 50
179.9999999999947988
 51
206.8880476177264995
  0
ARC
  5
B58
  8
0
  6
CONTINUOUS
 62
     3
 10
234.0000000000102034
 20
412.2332005306759015
 30
0.0
 40
24.9999999999895017
210
0.0
220
0.0000000000000002
230
-1.0
 50
333.1119523822728183
 51
0.0000000000062721
  0
LINE
  5
B59
  8
0
  6
CONTINUOUS
 62
     3
 10
-258.9999999999997726
 20
412.2332005306786868
 30
0.0000000000000915
 11
-258.9999999999997726
 21
427.3952485374260846
 31
0.0000000000000949
210
0.0
220
1.0
230
0.0000000000000002
  0
LINE
  5
B5A
  8
0
  6
CONTINUOUS
 62
     3
 10
-140.9999999999996874
 20
412.2332005306788005
 30
0.0000000000000915
 11
-140.9999999999996874
 21
427.3952485374264256
 31
0.0000000000000949
210
0.0
220
1.0
230
0.0000000000000002
  0
ARC
  5
B5B
  8
0
  6
CONTINUOUS
 62
     3
 10
165.9999999999990052
 20
427.3952485374264256
 30
0.0
 40
24.9999999999993392
210
0.0
220
0.0000000000000002
230
-1.0
 50
155.0000000000003126
 51
180.0
  0
ARC
  5
B5C
  8
0
  6
CONTINUOUS
 62
     3
 10
234.0000000000007105
 20
427.3952485374264256
 30
0.0
 40
24.9999999999991509
210
0.0
220
0.0000000000000002
230
-1.0
 50
359.9999999999993179
 51
24.9999999999996305
  0
LINE
  5
B5D
  8
0
  6
CONTINUOUS
 62
     3
 10
-144.2932441620745863
 20
439.999999999997101
 30
0.0000000000000977
 11
-143.3423053240834975
 21
437.9607050809433986
 31
0.0000000000000972
210
0.0
220
1.0
230
0.0000000000000002
  0
LINE
  5
B5E
  8
0
  6
CONTINUOUS
 62
     3
 10
-255.7067558379249874
 20
439.9999999999969873
 30
0.0000000000000977
 11
-256.6576946759161046
 21
437.9607050809432849
 31
0.0000000000000972
210
0.0
220
1.0
230
0.0000000000000002
  0
LINE
  5
B5F
  8
0
  6
CONTINUOUS
 62
     3
 10
-250.999999999999801
 20
352.989898732228994
 30
0.0000000000000784
 11
-250.999999999999801
 21
363.9660074801291216
 31
0.0000000000000808
210
0.0
220
1.0
230
0.0000000000000002
  0
LINE
  5
B60
  8
0
  6
CONTINUOUS
 62
     3
 10
-148.9999999999994884
 20
352.9898987322321773
 30
0.0000000000000784
 11
-148.9999999999994884
 21
363.9660074801291785
 31
0.0000000000000808
210
0.0
220
1.0
230
0.0000000000000002
  0
ARC
  5
B61
  8
0
  6
CONTINUOUS
 62
     3
 10
130.0000000000009948
 20
352.9898987322304151
 30
0.0
 40
120.9999999999987068
210
0.0
220
0.0000000000000002
230
-1.0
 50
315.0000000000031264
 51
359.9999999999992042
  0
ARC
  5
B62
  8
0
  6
CONTINUOUS
 62
     3
 10
-130.0000000000011084
 20
352.9898987322303014
 30
0.0000000000000784
 40
18.9999999999985789
 50
179.999999999994202
 51
224.9999999999903935
  0
LINE
  5
B63
  8
0
  6
CONTINUOUS
 62
     3
 10
-56.5649711574567107
 20
108.4350288425433035
 30
0.0000000000000241
 11
-215.5599205235772899
 21
267.4299782086634991
 31
0.0000000000000594
210
0.0
220
1.0
230
0.0000000000000002
  0
LINE
  5
B64
  8
0
  6
CONTINUOUS
 62
     3
 10
15.55992052357362
 20
180.5599205235687066
 30
0.0000000000000401
 11
-143.4350288425470126
 21
339.5548698896889732
 31
0.0000000000000754
210
0.0
220
1.0
230
0.0000000000000002
  0
ARC
  5
B65
  8
0
  6
CONTINUOUS
 62
     3
 10
70.0000000000061391
 20
94.9999999999950546
 30
0.0
 40
121.0000000000060965
210
0.0
220
0.0000000000000002
230
-1.0
 50
135.0000000000019895
 51
179.9999999999978968
  0
ARC
  5
B66
  8
0
  6
CONTINUOUS
 62
     3
 10
-70.0000000000062954
 20
94.9999999999949836
 30
0.0000000000000211
 40
19.0000000000062883
 50
0.0000000000014122
 51
44.9999999999973568
  0
LINE
  5
B67
  8
0
  6
VERDECKT
 62
     1
 10
-47.9424963626021423
 20
-0.0000000000002292
 30
0.0
 11
-48.9564221286261798
 21
11.58922453677223
 31
0.0000000000000026
210
0.0
220
1.0
230
0.0000000000000002
  0
LINE
  5
B68
  8
0
  6
VERDECKT
 62
     1
 10
47.9424963626022773
 20
0.0000000000000275
 30
0.0
 11
48.9564221286262935
 21
11.5892245367722602
 31
0.0000000000000026
210
0.0
220
1.0
230
0.0000000000000002
  0
LINE
  5
B69
  8
0
  6
VERDECKT
 62
     1
 10
-48.9564221286261727
 20
11.58922453677223
 30
0.0000000000000026
 11
-49.0
 21
94.9999999999956799
 31
0.0000000000000211
210
0.0
220
1.0
230
0.0000000000000002
  0
LINE
  5
B6A
  8
0
  6
VERDECKT
 62
     1
 10
48.9564221286262793
 20
11.5892245367722602
 30
0.0000000000000026
 11
49.0000000000000071
 21
94.9999999999996163
 31
0.0000000000000211
210
0.0
220
1.0
230
0.0000000000000002
  0
LINE
  5
B6B
  8
0
  6
VERDECKT
 62
     1
 10
-146.499999999999801
 20
439.999999999997101
 30
0.0000000000000977
 11
-145.1549208981568881
 21
437.1154685574622931
 31
0.0000000000000971
210
0.0
220
1.0
230
0.0000000000000002
  0
LINE
  5
B6C
  8
0
  6
VERDECKT
 62
     1
 10
-253.499999999999801
 20
439.9999999999969873
 30
0.0000000000000977
 11
-254.845079101842714
 21
437.1154685574621794
 31
0.0000000000000971
210
0.0
220
1.0
230
0.0000000000000002
  0
ARC
  5
B6D
  8
0
  6
VERDECKT
 62
     1
 10
234.0000000000013074
 20
427.3952485374261983
 30
0.0
 40
22.9999999999984901
210
0.0
220
0.0000000000000002
230
-1.0
 50
359.9999999999997158
 51
25.0000000000014495
  0
ARC
  5
B6E
  8
0
  6
VERDECKT
 62
     1
 10
165.9999999999986926
 20
427.3952485374261983
 30
0.0
 40
22.9999999999989591
210
0.0
220
0.0000000000000002
230
-1.0
 50
154.9999999999984084
 51
179.999999999999801
  0
LINE
  5
B6F
  8
0
  6
VERDECKT
 62
     1
 10
-142.9999999999996874
 20
427.3952485374261983
 30
0.0000000000000949
 11
-142.9999999999996874
 21
412.2329999999971051
 31
0.0000000000000915
210
0.0
220
1.0
230
0.0000000000000002
  0
LINE
  5
B70
  8
0
  6
VERDECKT
 62
     1
 10
-256.9999999999997726
 20
427.3952485374260846
 30
0.0000000000000949
 11
-256.9999999999997726
 21
412.2329999999968777
 31
0.0000000000000915
210
0.0
220
1.0
230
0.0000000000000002
  0
ARC
  5
B71
  8
0
  6
VERDECKT
 62
     1
 10
233.9999999999942872
 20
412.2329999999981851
 30
0.0
 40
23.0000000000054285
210
0.0
220
0.0000000000000002
230
-1.0
 50
333.1119523822786732
 51
359.9999999999968736
  0
ARC
  5
B72
  8
0
  6
VERDECKT
 62
     1
 10
166.0000000000042064
 20
412.2329999999981283
 30
0.0
 40
23.0000000000044906
210
0.0
220
0.0000000000000002
230
-1.0
 50
180.0000000000025011
 51
206.88804761772181
  0
ARC
  5
B73
  8
0
  6
VERDECKT
 62
     1
 10
266.9999999999997158
 20
395.4997994693158034
 30
0.0
 40
13.9999999999999307
210
0.0
220
0.0000000000000002
230
-1.0
 50
153.1119523822777069
 51
180.0000000000005969
  0
ARC
  5
B74
  8
0
  6
VERDECKT
 62
     1
 10
132.9999999999992042
 20
395.4997994693158034
 30
0.0
 40
14.0000000000004494
210
0.0
220
0.0000000000000002
230
-1.0
 50
359.9999999999996021
 51
26.8880476177211314
  0
LINE
  5
B75
  8
0
  6
VERDECKT
 62
     1
 10
-146.9999999999996021
 20
395.4997994693156897
 30
0.0000000000000878
 11
-146.9999999999996021
 21
376.9274888769447216
 31
0.0000000000000837
210
0.0
220
1.0
230
0.0000000000000002
  0
LINE
  5
B76
  8
0
  6
VERDECKT
 62
     1
 10
-252.999999999999801
 20
395.4997994693155761
 30
0.0000000000000878
 11
-252.999999999999801
 21
376.9274888769446079
 31
0.0000000000000837
210
0.0
220
1.0
230
0.0000000000000002
  0
ARC
  5
B77
  8
0
  6
VERDECKT
 62
     1
 10
239.9999999999947988
 20
376.9274888769463132
 30
0.0
 40
13.0000000000049898
210
0.0
220
0.0000000000000002
230
-1.0
 50
325.6988472432120716
 51
359.9999999999924967
  0
ARC
  5
B78
  8
0
  6
VERDECKT
 62
     1
 10
160.0000000000046043
 20
376.9274888769464269
 30
0.0
 40
13.0000000000049702
210
0.0
220
0.0000000000000002
230
-1.0
 50
180.0000000000075033
 51
214.3011527567879
  0
ARC
  5
B79
  8
0
  6
VERDECKT
 62
     1
 10
259.0000000000002842
 20
363.9660074801288943
 30
0.0
 40
10.0000000000005098
210
0.0
220
0.0000000000000002
230
-1.0
 50
145.6988472432134927
 51
179.9999999999990052
  0
ARC
  5
B7A
  8
0
  6
VERDECKT
 62
     1
 10
140.9999999999990905
 20
363.9660074801291785
 30
0.0
 40
10.0000000000004192
210
0.0
220
0.0000000000000002
230
-1.0
 50
0.0
 51
34.3011527567860668
  0
LINE
  5
B7B
  8
0
  6
VERDECKT
 62
     1
 10
-150.9999999999994884
 20
363.9660074801291785
 30
0.0000000000000808
 11
-150.9999999999994884
 21
352.9898987322296193
 31
0.0000000000000784
210
0.0
220
1.0
230
0.0000000000000002
  0
LINE
  5
B7C
  8
0
  6
VERDECKT
 62
     1
 10
-248.999999999999801
 20
363.9660074801291216
 30
0.0000000000000808
 11
-248.999999999999801
 21
352.989898732228994
 31
0.0000000000000784
210
0.0
220
1.0
230
0.0000000000000002
  0
ARC
  5
B7D
  8
0
  6
VERDECKT
 62
     1
 10
130.0000000000005969
 20
352.9898987322304151
 30
0.0
 40
118.9999999999992042
210
0.0
220
0.0000000000000002
230
-1.0
 50
315.0000000000032969
 51
359.9999999999993179
  0
ARC
  5
B7E
  8
0
  6
VERDECKT
 62
     1
 10
-130.0000000000005116
 20
352.9898987322304151
 30
0.0000000000000784
 40
20.9999999999993214
 50
180.0000000000019895
 51
224.9999999999893134
  0
LINE
  5
B7F
  8
0
  6
VERDECKT
 62
     1
 10
-55.1507575950836966
 20
109.8492424049163958
 30
0.0000000000000244
 11
-214.1457069612042119
 21
268.8441917710366056
 31
0.0000000000000597
210
0.0
220
1.0
230
0.0000000000000002
  0
LINE
  5
B80
  8
0
  6
VERDECKT
 62
     1
 10
14.1457069612001103
 20
179.1457069611959128
 30
0.0000000000000398
 11
-144.8492424049202896
 21
338.1406563273159804
 31
0.0000000000000751
210
0.0
220
1.0
230
0.0000000000000002
  0
ARC
  5
B81
  8
0
  6
VERDECKT
 62
     1
 10
70.000000000006338
 20
94.9999999999949694
 30
0.0
 40
119.0000000000062954
210
0.0
220
0.0000000000000002
230
-1.0
 50
135.0000000000017906
 51
179.9999999999976978
  0
ARC
  5
B82
  8
0
  6
VERDECKT
 62
     1
 10
-70.0000000000062386
 20
94.9999999999949978
 30
0.0000000000000211
 40
21.0000000000062101
 50
0.000000000001832
 51
44.9999999999978328
  0
ENDBLK
  5
B84
  8
0
  0
ENDSEC
  0
SECTION
  2
ENTITIES
  0
TEXT
  5
2EE
  8
VOLL
 10
359.1360264879136253
 20
32.2037217760458034
 30
0.0
 40
1.8
  1

  7
GREEKS
  0
TEXT
  5
2EF
  8
TEXT
 10
690.9682946915064576
 20
37.7619573092713381
 30
0.0
 40
2.5
  1
  
  7
GREEKS
 72
     1
 11
693.2301994534113874
 21
37.7619573092713381
 31
0.0
  0
TEXT
  5
2F0
  8
BEM
 10
935.0880120039885242
 20
173.3208393396735119
 30
0.0
 40
2.5
  1
 
 72
     4
 11
936.2189643849410459
 21
173.3208393396735119
 31
0.0
  0
TEXT
  5
2F2
  8
BEM
 10
514.2756286447093999
 20
52.5371326657223392
 30
0.0
 40
2.5
  1

  7
GREEKS
  0
TEXT
  5
2F3
  8
VOLL
 10
500.2094356249879752
 20
32.3538720086872402
 30
0.0
 40
1.8
  1

  7
GREEKS
  0
TEXT
  5
2F4
  8
BEM
 10
534.6975004642727072
 20
37.0795963319078368
 30
0.0
 40
2.5
  1

 41
0.8
  7
GREEKS
  0
TEXT
  5
2F5
  8
BEM
 10
534.6975004642727072
 20
32.3858277778556811
 30
0.0
 40
2.5
  1

 41
0.8
  7
GREEKS
  0
TEXT
  5
2F6
  8
BEM
 10
534.6975004642727072
 20
27.1479839591921888
 30
0.0
 40
2.5
  1

 41
0.8
  7
GREEKS
  0
TEXT
  5
2F7
  8
BEM
 10
534.6245559868981445
 20
22.6427950090945593
 30
0.0
 40
1.8
  1

 41
0.8
  7
GREEKS
  0
TEXT
  5
2F8
  8
BEM
 10
521.9409851072870197
 20
48.2343841053198403
 30
0.0
 40
2.0
  1

 41
0.8
  7
GREEKS
 72
     1
 11
521.9409851072870197
 21
48.2343841053198403
 31
0.0
  0
TEXT
  5
2F9
  8
TEXT
 10
832.0417038285810349
 20
37.912107541912782
 30
0.0
 40
2.5
  1
  
  7
GREEKS
 72
     1
 11
834.303608590485851
 21
37.912107541912782
 31
0.0
  0
TEXT
  5
2FA
  8
BEM
 10
1076.1614211410631015
 20
173.4709895723150055
 30
0.0
 40
2.5
  1
 
 72
     4
 11
1077.292373522014941
 21
173.4709895723150055
 31
0.0
  0
TEXT
  5
2FD
  8
VOLL
 10
455.0275751403322033
 20
189.1479780847651
 30
0.0
 40
1.8
  1

  7
GREEKS
  0
TEXT
  5
2FE
  8
TEXT
 10
786.8598433439251494
 20
194.7062136179906133
 30
0.0
 40
2.5
  1
  
  7
GREEKS
 72
     1
 11
789.1217481058299654
 21
194.7062136179906133
 31
0.0
  0
TEXT
  5
2FF
  8
BEM
 10
1030.9795606564071022
 20
330.2650956483927871
 30
0.0
 40
2.5
  1
 
 72
     4
 11
1032.1105130373589418
 21
330.2650956483927871
 31
0.0
  0
TEXT
  5
300
  8
VOLL
 10
612.5622922174937912
 20
194.7035337198362868
 30
0.0
 40
1.8
  1

  7
GREEKS
  0
TEXT
  5
301
  8
BEM
 10
647.0503570567783527
 20
199.4292580430569046
 30
0.0
 40
2.5
  1

 41
0.8
  7
GREEKS
  0
TEXT
  5
302
  8
BEM
 10
647.0503570567783527
 20
194.7354894890046921
 30
0.0
 40
2.5
  1

 41
0.8
  7
GREEKS
  0
TEXT
  5
303
  8
BEM
 10
647.0503570567783527
 20
189.4976456703411998
 30
0.0
 40
2.5
  1

 41
0.8
  7
GREEKS
  0
TEXT
  5
304
  8
BEM
 10
646.9774125794040174
 20
184.9924567202436094
 30
0.0
 40
1.8
  1

 41
0.8
  7
GREEKS
  0
TEXT
  5
305
  8
TEXT
 10
944.3945604210866804
 20
200.2617692530618001
 30
0.0
 40
2.5
  1
  
  7
GREEKS
 72
     1
 11
946.6564651829916102
 21
200.2617692530618001
 31
0.0
  0
TEXT
  5
306
  8
BEM
 10
1188.514277733569088
 20
335.8206512834640876
 30
0.0
 40
2.5
  1
 
 72
     4
 11
1189.6452301145209276
 21
335.8206512834640876
 31
0.0
  0
TEXT
  5
309
  8
VOLL
 10
454.1351803341311779
 20
211.2759977528519073
 30
0.0
 40
1.8
  1

  7
GREEKS
  0
TEXT
  5
30A
  8
TEXT
 10
785.9674485377239535
 20
216.8342332860775059
 30
0.0
 40
2.5
  1
  
  7
GREEKS
 72
     1
 11
788.2293532996287695
 21
216.8342332860775059
 31
0.0
  0
TEXT
  5
30B
  8
BEM
 10
1030.08716585020602
 20
352.3931153164796797
 30
0.0
 40
2.5
  1
 
 72
     4
 11
1031.2181182311580869
 21
352.3931153164796797
 31
0.0
  0
TEXT
  5
30C
  8
BEM
 10
619.4807934137810435
 20
251.4292284514376092
 30
0.0
 40
2.5
  1

  7
GREEKS
  0
TEXT
  5
30D
  8
VOLL
 10
605.4146003940595619
 20
231.2459677944025032
 30
0.0
 40
1.8
  1

  7
GREEKS
  0
TEXT
  5
30E
  8
BEM
 10
639.9026652333443508
 20
235.9716921176230926
 30
0.0
 40
2.5
  1

 41
0.8
  7
GREEKS
  0
TEXT
  5
30F
  8
BEM
 10
639.9026652333443508
 20
231.2779235635709085
 30
0.0
 40
2.5
  1

 41
0.8
  7
GREEKS
  0
TEXT
  5
310
  8
BEM
 10
639.9026652333443508
 20
226.0400797449073877
 30
0.0
 40
2.5
  1

 41
0.8
  7
GREEKS
  0
TEXT
  5
311
  8
BEM
 10
639.8297207559699018
 20
221.5348907948097974
 30
0.0
 40
1.8
  1

 41
0.8
  7
GREEKS
  0
TEXT
  5
312
  8
BEM
 10
627.1461498763585496
 20
247.1264798910351033
 30
0.0
 40
2.0
  1

 41
0.8
  7
GREEKS
 72
     1
 11
627.1461498763585496
 21
247.1264798910351033
 31
0.0
  0
TEXT
  5
313
  8
TEXT
 10
937.2468685976525649
 20
236.8042033276279881
 30
0.0
 40
2.5
  1
  
  7
GREEKS
 72
     1
 11
939.5087733595572672
 21
236.8042033276279881
 31
0.0
  0
TEXT
  5
314
  8
BEM
 10
1181.3665859101349724
 20
372.3630853580302755
 30
0.0
 40
2.5
  1
 
 72
     4
 11
1182.4975382910870394
 21
372.3630853580302755
 31
0.0
  0
TEXT
  5
315
  8
VOLL
 10
406.6330629752692971
 20
258.0474683094898865
 30
0.0
 40
1.8
  1

  7
GREEKS
  0
TEXT
  5
316
  8
TEXT
 10
738.4653311788622432
 20
263.6057038427153998
 30
0.0
 40
2.5
  1
  
  7
GREEKS
 72
     1
 11
740.7272359407669455
 21
263.6057038427153998
 31
0.0
  0
TEXT
  5
317
  8
BEM
 10
982.5850484913443097
 20
399.1645858731176872
 30
0.0
 40
2.5
  1
 
 72
     4
 11
983.7160008722968314
 21
399.1645858731176872
 31
0.0
  0
TEXT
  5
318
  8
VOLL
 10
564.1677800524307713
 20
263.6030239445610732
 30
0.0
 40
1.8
  1

  7
GREEKS
  0
TEXT
  5
319
  8
BEM
 10
598.6558448917154465
 20
268.3287482677818048
 30
0.0
 40
2.5
  1

 41
0.8
  7
GREEKS
  0
TEXT
  5
31A
  8
BEM
 10
598.6558448917154465
 20
263.6349797137295923
 30
0.0
 40
2.5
  1

 41
0.8
  7
GREEKS
  0
TEXT
  5
31B
  8
BEM
 10
598.6558448917154465
 20
258.3971358950661283
 30
0.0
 40
2.5
  1

 41
0.8
  7
GREEKS
  0
TEXT
  5
31C
  8
BEM
 10
598.5829004143411112
 20
253.8919469449685096
 30
0.0
 40
1.8
  1

 41
0.8
  7
GREEKS
  0
TEXT
  5
31D
  8
TEXT
 10
896.0000482560236605
 20
269.1612594777867002
 30
0.0
 40
2.5
  1
  
  7
GREEKS
 72
     1
 11
898.2619530179285903
 21
269.1612594777867002
 31
0.0
  0
TEXT
  5
31E
  8
BEM
 10
1140.1197655685059544
 20
404.720141508188874
 30
0.0
 40
2.5
  1
 
 72
     4
 11
1141.2507179494580214
 21
404.720141508188874
 31
0.0
  0
TEXT
  5
31F
  8
VOLL
 10
407.3527920181178956
 20
232.1432694743415937
 30
0.0
 40
1.8
  1

  7
GREEKS
  0
TEXT
  5
320
  8
TEXT
 10
739.1850602217108417
 20
237.701505007567107
 30
0.0
 40
2.5
  1
  
  7
GREEKS
 72
     1
 11
741.446964983615544
 21
237.701505007567107
 31
0.0
  0
TEXT
  5
321
  8
BEM
 10
983.3047775341927945
 20
373.2603870379692808
 30
0.0
 40
2.5
  1
 
 72
     4
 11
984.4357299151452025
 21
373.2603870379692808
 31
0.0
  0
TEXT
  5
322
  8
VOLL
 10
564.8875090952793698
 20
237.6988251094128088
 30
0.0
 40
1.8
  1

  7
GREEKS
  0
TEXT
  5
323
  8
BEM
 10
599.375573934564045
 20
242.4245494326333983
 30
0.0
 40
2.5
  1

 41
0.8
  7
GREEKS
  0
TEXT
  5
324
  8
BEM
 10
599.375573934564045
 20
237.7307808785812142
 30
0.0
 40
2.5
  1

 41
0.8
  7
GREEKS
  0
TEXT
  5
325
  8
BEM
 10
599.375573934564045
 20
232.4929370599176934
 30
0.0
 40
2.5
  1

 41
0.8
  7
GREEKS
  0
TEXT
  5
326
  8
BEM
 10
599.3026294571897097
 20
227.9877481098201031
 30
0.0
 40
1.8
  1

 41
0.8
  7
GREEKS
  0
TEXT
  5
327
  8
TEXT
 10
896.7197772988723727
 20
243.2570606426382938
 30
0.0
 40
2.5
  1
  
  7
GREEKS
 72
     1
 11
898.9816820607773025
 21
243.2570606426382938
 31
0.0
  0
TEXT
  5
328
  8
BEM
 10
1140.8394946113539845
 20
378.8159426730405812
 30
0.0
 40
2.5
  1
 
 72
     4
 11
1141.9704469923060515
 21
378.8159426730405812
 31
0.0
  0
TEXT
  5
329
  8
BEM
 10
421.4189850378393203
 20
252.3265301313766997
 30
0.0
 40
2.5
  1

  7
GREEKS
  0
TEXT
  5
32A
  8
VOLL
 10
407.3527920181178956
 20
232.1432694743415937
 30
0.0
 40
1.8
  1

  7
GREEKS
  0
TEXT
  5
32B
  8
BEM
 10
441.8408568574025139
 20
236.8689937975620978
 30
0.0
 40
2.5
  1

 41
0.8
  7
GREEKS
  0
TEXT
  5
32C
  8
BEM
 10
441.8408568574025139
 20
232.175225243509999
 30
0.0
 40
2.5
  1

 41
0.8
  7
GREEKS
  0
TEXT
  5
32D
  8
BEM
 10
441.8408568574025139
 20
226.9373814248465067
 30
0.0
 40
2.5
  1

 41
0.8
  7
GREEKS
  0
TEXT
  5
32E
  8
BEM
 10
429.0843415004168833
 20
248.0237815709741938
 30
0.0
 40
2.0
  1

 41
0.8
  7
GREEKS
 72
     1
 11
429.0843415004168833
 21
248.0237815709741938
 31
0.0
  0
TEXT
  5
32F
  8
TEXT
 10
739.1850602217108417
 20
237.701505007567107
 30
0.0
 40
2.5
  1
  
  7
GREEKS
 72
     1
 11
741.446964983615544
 21
237.701505007567107
 31
0.0
  0
TEXT
  5
330
  8
BEM
 10
983.3047775341927945
 20
373.2603870379692808
 30
0.0
 40
2.5
  1
 
 72
     4
 11
984.4357299151452025
 21
373.2603870379692808
 31
0.0
  0
TEXT
  5
331
  8
VOLL
 10
437.5814118177588057
 20
224.9476586868003949
 30
0.0
 40
1.8
  1

  7
GREEKS
  0
TEXT
  5
332
  8
TEXT
 10
769.4136800213517517
 20
230.5058942200259082
 30
0.0
 40
2.5
  1
  
  7
GREEKS
 72
     1
 11
771.6755847832565678
 21
230.5058942200259082
 31
0.0
  0
TEXT
  5
333
  8
BEM
 10
1013.5333973338340456
 20
366.0647762504282241
 30
0.0
 40
2.5
  1
 
 72
     4
 11
1014.6643497147859989
 21
366.0647762504282241
 31
0.0
  0
TEXT
  5
348
  8
BEM
 10
552.0704301959262921
 20
287.8865847875740087
 30
0.0
 40
2.5
  1

  7
GREEKS
  0
TEXT
  5
349
  8
VOLL
 10
538.0042371762048106
 20
267.7033241305388742
 30
0.0
 40
1.8
  1

  7
GREEKS
  0
TEXT
  5
34A
  8
BEM
 10
572.492302015489372
 20
272.4290484537594921
 30
0.0
 40
2.5
  1

 41
0.8
  7
GREEKS
  0
TEXT
  5
34B
  8
BEM
 10
572.492302015489372
 20
267.7352798997072796
 30
0.0
 40
2.5
  1

 41
0.8
  7
GREEKS
  0
TEXT
  5
34C
  8
BEM
 10
572.492302015489372
 20
262.4974360810438156
 30
0.0
 40
2.5
  1

 41
0.8
  7
GREEKS
  0
TEXT
  5
34D
  8
BEM
 10
572.4193575381150367
 20
257.9922471309462253
 30
0.0
 40
1.8
  1

 41
0.8
  7
GREEKS
  0
TEXT
  5
34E
  8
BEM
 10
559.7357866585037982
 20
283.5838362271715027
 30
0.0
 40
2.0
  1

 41
0.8
  7
GREEKS
 72
     1
 11
559.7357866585037982
 21
283.5838362271715027
 31
0.0
  0
TEXT
  5
34F
  8
TEXT
 10
869.8365053797975861
 20
273.2615596637643876
 30
0.0
 40
2.5
  1
  
  7
GREEKS
 72
     1
 11
872.0984101417025158
 21
273.2615596637643876
 31
0.0
  0
TEXT
  5
350
  8
BEM
 10
1113.9562226922801074
 20
408.820441694166675
 30
0.0
 40
2.5
  1
 
 72
     4
 11
1115.087175073231947
 21
408.820441694166675
 31
0.0
  0
TEXT
  5
793
  8
VOLL
 10
1862.8842482291970555
 20
373.6047089395232206
 30
0.0
 40
1.8
  1

  7
GREEKS
  0
INSERT
  5
B46
  8
0
  2
A$C7F296944
 10
0.0000000000000568
 20
-0.0000000000000084
 30
0.0
  0
INSERT
  5
B85
  8
0
  2
A$C7AF949A0
 10
0.0000000000000323
 20
137.3271060010060864
 30
0.0
  0
VIEWPORT
  5
97C
 67
     1
  8
0
 10
6.4853631130356852
 20
4.1206283774467041
 30
0.0
 40
16.097886544440609
 41
8.5506678528494238
 68
     1
 69
     1
1001
ACAD
1000
MVIEW
1002
{
1070
    16
1010
0.0
1020
0.0
1030
0.0
1010
0.0
1020
0.0
1030
1.0
1040
0.0
1040
8.5506678528494238
1040
6.4853631130356852
1040
4.1206283774467041
1040
50.0
1040
0.0
1040
0.0
1070
     0
1070
   500
1070
     1
1070
     1
1070
     0
1070
     0
1070
     0
1070
     0
1040
0.0
1040
0.0
1040
0.0
1040
10.0
1040
10.0
1040
10.0
1040
10.0
1070
     0
1002
{
1002
}
1002
}
  0
ENDSEC
  0
EOF
