  0
SECTION
  2
HEADER
  9
$ACADVER
  1
AC1009
  9
$INSBASE
 10
214.1896305907800127
 20
83.9878893283155321
 30
0.0
  9
$EXTMIN
 10
-288.6617351206145941
 20
-51.1348161706057525
 30
-0.014189591182344
  9
$EXTMAX
 10
88.6610183467619066
 20
559.5055133734490482
 30
0.0212865520979904
  9
$LIMMIN
 10
0.0
 20
0.0
  9
$LIMMAX
 10
840.0
 20
594.0
  9
$ORTHOMODE
 70
     1
  9
$REGENMODE
 70
     1
  9
$FILLMODE
 70
     1
  9
$QTEXTMODE
 70
     0
  9
$MIRRTEXT
 70
     1
  9
$DRAGMODE
 70
     2
  9
$LTSCALE
 40
20.0
  9
$OSMODE
 70
  1327
  9
$ATTMODE
 70
     1
  9
$TEXTSIZE
 40
3.5
  9
$TRACEWID
 40
1.0
  9
$TEXTSTYLE
  7
STANDARD
  9
$CLAYER
  8
0
  9
$CELTYPE
  6
BYLAYER
  9
$CECOLOR
 62
   256
  9
$DIMSCALE
 40
2.0
  9
$DIMASZ
 40
3.5
  9
$DIMEXO
 40
1.0
  9
$DIMDLI
 40
7.0
  9
$DIMRND
 40
0.0
  9
$DIMDLE
 40
0.0
  9
$DIMEXE
 40
1.0
  9
$DIMTP
 40
2.0
  9
$DIMTM
 40
2.0
  9
$DIMTXT
 40
3.5
  9
$DIMCEN
 40
1.5
  9
$DIMTSZ
 40
0.0
  9
$DIMTOL
 70
     0
  9
$DIMLIM
 70
     0
  9
$DIMTIH
 70
     0
  9
$DIMTOH
 70
     0
  9
$DIMSE1
 70
     0
  9
$DIMSE2
 70
     0
  9
$DIMTAD
 70
     1
  9
$DIMZIN
 70
     8
  9
$DIMBLK
  1

  9
$DIMASO
 70
     1
  9
$DIMSHO
 70
     0
  9
$DIMPOST
  1

  9
$DIMAPOST
  1

  9
$DIMALT
 70
     0
  9
$DIMALTD
 70
     2
  9
$DIMALTF
 40
25.3999999999999986
  9
$DIMLFAC
 40
1.0
  9
$DIMTOFL
 70
     0
  9
$DIMTVP
 40
0.2857142857142857
  9
$DIMTIX
 70
     0
  9
$DIMSOXD
 70
     0
  9
$DIMSAH
 70
     0
  9
$DIMBLK1
  1

  9
$DIMBLK2
  1

  9
$DIMSTYLE
  2
STANDARD
  9
$DIMCLRD
 70
     0
  9
$DIMCLRE
 70
     0
  9
$DIMCLRT
 70
     1
  9
$DIMTFAC
 40
0.5142857142857143
  9
$DIMGAP
 40
1.5
  9
$LUNITS
 70
     2
  9
$LUPREC
 70
     1
  9
$SKETCHINC
 40
1.0
  9
$FILLETRAD
 40
0.0
  9
$AUNITS
 70
     0
  9
$AUPREC
 70
     0
  9
$MENU
  1
ACAD
  9
$ELEVATION
 40
0.0
  9
$PELEVATION
 40
0.0
  9
$THICKNESS
 40
0.0
  9
$LIMCHECK
 70
     0
  9
$BLIPMODE
 70
     0
  9
$CHAMFERA
 40
0.5
  9
$CHAMFERB
 40
0.5
  9
$SKPOLY
 70
     0
  9
$TDCREATE
 40
2450045.3436226858757436
  9
$TDUPDATE
 40
2458382.5998148149810731
  9
$TDINDWG
 40
0.1093541204
  9
$TDUSRTIMER
 40
0.1093541204
  9
$USRTIMER
 70
     1
  9
$ANGBASE
 50
0.0
  9
$ANGDIR
 70
     0
  9
$PDMODE
 70
     0
  9
$PDSIZE
 40
0.0
  9
$PLINEWID
 40
0.0
  9
$COORDS
 70
     1
  9
$SPLFRAME
 70
     0
  9
$SPLINETYPE
 70
     6
  9
$SPLINESEGS
 70
     8
  9
$ATTDIA
 70
     0
  9
$ATTREQ
 70
     0
  9
$HANDLING
 70
     1
  9
$HANDSEED
  5
9A4
  9
$SURFTAB1
 70
     6
  9
$SURFTAB2
 70
     6
  9
$SURFTYPE
 70
     6
  9
$SURFU
 70
     6
  9
$SURFV
 70
     6
  9
$UCSNAME
  2

  9
$UCSORG
 10
0.0
 20
0.0
 30
0.0
  9
$UCSXDIR
 10
1.0
 20
0.0
 30
0.0
  9
$UCSYDIR
 10
0.0
 20
1.0
 30
0.0
  9
$PUCSNAME
  2

  9
$PUCSORG
 10
0.0
 20
0.0
 30
0.0
  9
$PUCSXDIR
 10
1.0
 20
0.0
 30
0.0
  9
$PUCSYDIR
 10
0.0
 20
1.0
 30
0.0
  9
$USERI1
 70
     0
  9
$USERI2
 70
     0
  9
$USERI3
 70
     0
  9
$USERI4
 70
     0
  9
$USERI5
 70
     0
  9
$USERR1
 40
0.0
  9
$USERR2
 40
0.0
  9
$USERR3
 40
0.0
  9
$USERR4
 40
0.0
  9
$USERR5
 40
0.0
  9
$WORLDVIEW
 70
     1
  9
$SHADEDGE
 70
     3
  9
$SHADEDIF
 70
    70
  9
$TILEMODE
 70
     1
  9
$MAXACTVP
 70
    16
  9
$PLIMCHECK
 70
     0
  9
$PEXTMIN
 10
-0.1803362611586436
 20
-0.1666030670942327
 30
-0.0000000000112498
  9
$PEXTMAX
 10
11.0791216984751806
 20
8.0394971644434925
 30
0.0000000000002956
  9
$PLIMMIN
 10
-0.2500002402958907
 20
-0.2499999962453767
  9
$PLIMMAX
 10
10.7499995194082203
 20
8.2499997634587334
  9
$UNITMODE
 70
     0
  9
$VISRETAIN
 70
     0
  9
$PLINEGEN
 70
     0
  9
$PSLTSCALE
 70
     0
  0
ENDSEC
  0
SECTION
  2
TABLES
  0
TABLE
  2
VPORT
 70
     1
  0
VPORT
  2
*ACTIVE
 70
     0
 10
0.0
 20
0.0
 11
1.0
 21
1.0
 12
3.2996446648312481
 22
24.9853478384821983
 13
0.0
 23
0.0
 14
2.5
 24
2.5
 15
10.0
 25
10.0
 16
-0.0000000000004547
 26
0.0
 36
2033.1879434391269115
 17
-103.3000030517576988
 27
229.20000076293951
 37
232.4999999999998863
 40
615.2087110618407451
 41
1.8826466916354549
 42
50.0
 43
0.0
 44
0.0
 50
0.0
 51
0.0
 71
     0
 72
   500
 73
     1
 74
     0
 75
     0
 76
     0
 77
     0
 78
     0
  0
ENDTAB
  0
TABLE
  2
LTYPE
 70
     4
  0
LTYPE
  2
AUSGEZOGEN
 70
     0
  3
Ausgezogene Linie
 72
    65
 73
     0
 40
0.0
  0
LTYPE
  2
CONTINUOUS
 70
     0
  3
Solid Line
 72
    65
 73
     0
 40
0.0
  0
LTYPE
  2
VERDECKT
 70
     0
  3
Verdeckt __ __ __ __ __ __ __ __ __ __ __ __ __
 72
    65
 73
     2
 40
0.375
 49
0.25
 49
-0.125
  0
ENDTAB
  0
TABLE
  2
LAYER
 70
    10
  0
LAYER
  2
0
 70
     0
 62
     7
  6
AUSGEZOGEN
  0
LAYER
  2
VOLL
 70
     0
 62
     1
  6
AUSGEZOGEN
  0
LAYER
  2
BEM
 70
     0
 62
     7
  6
AUSGEZOGEN
  0
LAYER
  2
DEFPOINTS
 70
     0
 62
     7
  6
AUSGEZOGEN
  0
LAYER
  2
TEXT
 70
     0
 62
     7
  6
AUSGEZOGEN
  0
ENDTAB
  0
TABLE
  2
STYLE
 70
     4
  0
STYLE
  2
STANDARD
 70
     0
 40
0.0
 41
0.8
 50
0.0
 71
     0
 42
3.5
  3
simplex.shx
  4

  0
STYLE
  2
GREEKS
 70
     0
 40
0.0
 41
0.8
 50
0.0
 71
     0
 42
3.5
  3
SIMPLEX.shx
  4

  0
ENDTAB
  0
TABLE
  2
VIEW
 70
     2
  0
ENDTAB
  0
TABLE
  2
UCS
 70
     0
  0
ENDTAB
  0
TABLE
  2
APPID
 70
     9
  0
APPID
  2
ACAD
 70
     0
  0
APPID
  2
ACAECLAYERSTANDARD
 70
     0
  0
APPID
  2
ACCMTRANSPARENCY
 70
     0
  0
APPID
  2
ACAD_NAV_VCDISPLAY
 70
     0
  0
APPID
  2
ACAD_MLEADERVER
 70
     0
  0
APPID
  2
ACADANNOMONITORALERTICONDI
 70
     0
  0
APPID
  2
ACAD_EXEMPT_FROM_CAD_STANDARDS
 70
     0
  0
APPID
  2
ACAD_PSEXT
 70
     0
  0
APPID
  2
ACAD_OBJECT_CHANGE_GUID
 70
     0
  0
ENDTAB
  0
TABLE
  2
DIMSTYLE
 70
     2
  0
DIMSTYLE
  2
STANDARD
 70
     0
  3

  4

  5

  6

  7

 40
1.0
 41
0.18
 42
0.0625
 43
0.38
 44
0.18
 45
0.0
 46
0.0
 47
0.0
 48
0.0
140
0.18
141
0.09
142
0.0
143
25.3999999999999986
144
1.0
145
0.0
146
1.0
147
0.09
 71
     0
 72
     0
 73
     1
 74
     1
 75
     0
 76
     0
 77
     0
 78
     0
170
     0
171
     2
172
     0
173
     0
174
     0
175
     0
176
     0
177
     0
178
     0
  0
ENDTAB
  0
ENDSEC
  0
SECTION
  2
BLOCKS
  0
BLOCK
  8
0
  2
$MODEL_SPACE
 70
     0
 10
0.0
 20
0.0
 30
0.0
  3
$MODEL_SPACE
  1

  0
ENDBLK
  5
56
  8
0
  0
BLOCK
 67
     1
  8
0
  2
$PAPER_SPACE
 70
     0
 10
0.0
 20
0.0
 30
0.0
  3
$PAPER_SPACE
  1

  0
ENDBLK
  5
54
 67
     1
  8
0
  0
BLOCK
  8
0
  2
A$C70DC150F
 70
     0
 10
0.0
 20
0.0
 30
0.0
  3
A$C70DC150F
  1

  0
ARC
  5
8F8
  8
0
  6
AUSGEZOGEN
 62
     3
 10
0.0000000000001022
 20
0.0000000000000512
 30
0.0
 40
44.5
 50
270.0
 51
90.0
  0
CIRCLE
  5
8F9
  8
0
  6
AUSGEZOGEN
 62
     3
 10
-199.999999999999801
 20
0.0000000000000431
 30
-0.0000000000000568
 40
46.0000000000000497
  0
CIRCLE
  5
8FA
  8
0
  6
AUSGEZOGEN
 62
     3
 10
-199.999999999999801
 20
0.0000000000000391
 30
-0.0000000000000568
 40
42.8999999999999773
  0
CIRCLE
  5
8FB
  8
0
  6
AUSGEZOGEN
 62
     3
 10
-199.999999999999801
 20
0.0000000000000431
 30
-0.0000000000000568
 40
47.7654046703399331
  0
CIRCLE
  5
8FC
  8
0
  6
AUSGEZOGEN
 62
     3
 10
-199.999999999999801
 20
0.0000000000000423
 30
-0.0000000000000568
 40
51.0999999999999588
  0
LINE
  5
8FD
  8
0
  6
AUSGEZOGEN
 62
     3
 10
-139.3587732386054086
 20
44.5000000000000497
 30
-0.0000000000000284
 11
-174.8810828258860113
 21
44.5000000000000497
 31
-0.0000000000000568
  0
LINE
  5
8FE
  8
0
  6
AUSGEZOGEN
 62
     3
 10
-174.8810828258858976
 20
-44.4999999999999432
 30
-0.0000000000000568
 11
-139.3587732386054086
 21
-44.4999999999999432
 31
-0.0000000000000284
  0
LINE
  5
8FF
  8
0
  6
AUSGEZOGEN
 62
     3
 10
-60.6412267613960765
 20
-44.4999999999999432
 30
0.0
 11
-139.3587732386052949
 21
-44.4999999999999432
 31
-0.0000000000000142
  0
LINE
  5
900
  8
0
  6
AUSGEZOGEN
 62
     3
 10
-60.6412267613960765
 20
44.5000000000000497
 30
0.0
 11
-139.3587732386052949
 21
44.5000000000000497
 31
-0.0000000000000142
  0
LINE
  5
901
  8
0
  6
AUSGEZOGEN
 62
     3
 10
-60.641226761396041
 20
-44.4999999999999432
 30
0.0
 11
0.0000000000000711
 21
-44.4999999999999432
 31
0.0
  0
LINE
  5
902
  8
0
  6
AUSGEZOGEN
 62
     3
 10
0.0000000000000738
 20
44.5000000000000497
 30
0.0
 11
-60.6412267613960978
 21
44.5000000000000497
 31
0.0
  0
CIRCLE
  5
903
  8
0
  6
VERDECKT
 62
     1
 10
0.0000000000000284
 20
0.0000000000000146
 30
0.0
 40
42.0190016246714606
  0
ARC
  5
904
  8
0
  6
VERDECKT
 62
     1
 10
-0.0000000000000115
 20
0.0000000000000263
 30
0.0
 40
42.8999999999999986
 50
270.0
 51
90.0
  0
CIRCLE
  5
905
  8
0
  6
VERDECKT
 62
     1
 10
0.0000000000000284
 20
0.0000000000000146
 30
0.0
 40
43.6251133647407272
  0
ARC
  5
906
  8
0
  6
VERDECKT
 62
     1
 10
0.0000000000000738
 20
0.0000000000000334
 30
0.0
 40
44.4999999999999716
 50
180.0
 51
270.0
  0
ARC
  5
907
  8
0
  6
VERDECKT
 62
     1
 10
0.000000000000159
 20
-0.0000000000000003
 30
0.0
 40
44.5000000000000497
 50
90.0000000000000711
 51
179.9999999999998863
  0
CIRCLE
  5
908
  8
0
  6
VERDECKT
 62
     1
 10
-199.999999999999801
 20
0.0000000000000423
 30
-0.0000000000000568
 40
49.4999999999999432
  0
CIRCLE
  5
909
  8
0
  6
VERDECKT
 62
     1
 10
-199.999999999999801
 20
0.0000000000000409
 30
-0.0000000000000568
 40
47.6000000000000227
  0
CIRCLE
  5
90A
  8
0
  6
VERDECKT
 62
     1
 10
-199.999999999999801
 20
0.0000000000000391
 30
-0.0000000000000568
 40
44.5
  0
LINE
  5
90B
  8
0
  6
VERDECKT
 62
     1
 10
-139.3587732386050106
 20
42.9000000000000199
 30
-0.0000000000000284
 11
-200.0
 21
42.900000000000027
 31
-0.0000000000000568
  0
LINE
  5
90C
  8
0
  6
VERDECKT
 62
     1
 10
-200.0
 20
-42.8999999999999631
 30
-0.0000000000000568
 11
-139.3587732386050106
 21
-42.8999999999999702
 31
-0.0000000000000284
  0
LINE
  5
90D
  8
0
  6
VERDECKT
 62
     1
 10
-60.6412267613957425
 20
-42.8999999999999702
 30
0.0
 11
-139.3587732386050106
 21
-42.8999999999999702
 31
-0.0000000000000142
  0
LINE
  5
90E
  8
0
  6
VERDECKT
 62
     1
 10
-60.6412267613957425
 20
42.9000000000000199
 30
0.0
 11
-139.3587732386050106
 21
42.9000000000000199
 31
-0.0000000000000142
  0
LINE
  5
90F
  8
0
  6
VERDECKT
 62
     1
 10
-60.6412267613957496
 20
-42.8999999999999702
 30
0.0
 11
-0.0000000000000426
 21
-42.8999999999999773
 31
0.0
  0
LINE
  5
910
  8
0
  6
VERDECKT
 62
     1
 10
-0.0000000000000115
 20
42.9000000000000128
 30
0.0
 11
-60.641226761395771
 21
42.9000000000000199
 31
0.0
  0
LINE
  5
911
  8
0
  6
VERDECKT
 62
     1
 10
-174.8810828258860113
 20
44.5000000000000497
 30
-0.0000000000000568
 11
-200.0000000000001137
 21
44.5000000000000568
 31
-0.0000000000000568
  0
LINE
  5
912
  8
0
  6
VERDECKT
 62
     1
 10
-200.000000000000199
 20
-44.4999999999999289
 30
-0.0000000000000568
 11
-174.8810828258858976
 21
-44.4999999999999432
 31
-0.0000000000000568
  0
ENDBLK
  5
914
  8
0
  0
BLOCK
  8
0
  2
A$C29500FE0
 70
     0
 10
0.0
 20
0.0
 30
0.0
  3
A$C29500FE0
  1

  0
LINE
  5
918
  8
0
  6
AUSGEZOGEN
 62
     3
 10
43.6251133647407627
 20
-0.0000000000000027
 30
0.0
 11
-43.6251133647406988
 21
0.0000000000000027
 31
0.0
210
0.0
220
1.0
230
-0.0000000000000002
  0
LINE
  5
919
  8
0
  6
AUSGEZOGEN
 62
     3
 10
-247.7654046703399047
 20
465.0000000000001137
 30
-0.0000000000001033
 11
-152.2345953296600101
 21
465.0000000000001137
 31
-0.0000000000001033
210
0.0
220
1.0
230
-0.0000000000000002
  0
LINE
  5
91A
  8
0
  6
AUSGEZOGEN
 62
     3
 10
-43.625113364740713
 20
0.0000000000000027
 30
0.0
 11
-44.4999999999999716
 21
10.0
 31
-0.0000000000000022
210
0.0
220
1.0
230
-0.0000000000000002
  0
LINE
  5
91B
  8
0
  6
AUSGEZOGEN
 62
     3
 10
43.6251133647407698
 20
0.0000000000000275
 30
0.0
 11
44.5000000000000071
 21
10.0000000000000302
 31
-0.0000000000000022
210
0.0
220
1.0
230
-0.0000000000000002
  0
LINE
  5
91C
  8
0
  6
AUSGEZOGEN
 62
     3
 10
-44.4999999999999432
 20
10.0
 30
-0.0000000000000022
 11
-44.4999999999999929
 21
74.9999999999997868
 31
-0.0000000000000167
210
0.0
220
1.0
230
-0.0000000000000002
  0
LINE
  5
91D
  8
0
  6
AUSGEZOGEN
 62
     3
 10
44.4999999999999929
 20
10.0000000000000302
 30
-0.0000000000000022
 11
44.4999999999999432
 21
75.0000000000003126
 31
-0.0000000000000167
210
0.0
220
1.0
230
-0.0000000000000002
  0
LINE
  5
91E
  8
0
  6
AUSGEZOGEN
 62
     3
 10
-152.2345953296600101
 20
465.0000000000001137
 30
-0.0000000000001033
 11
-151.2048284388980903
 21
462.7916577762495081
 31
-0.0000000000001028
210
0.0
220
1.0
230
-0.0000000000000002
  0
LINE
  5
91F
  8
0
  6
AUSGEZOGEN
 62
     3
 10
-247.7654046703399047
 20
465.0000000000001137
 30
-0.0000000000001033
 11
-248.7951715611017107
 21
462.7916577762495081
 31
-0.0000000000001028
210
0.0
220
1.0
230
-0.0000000000000002
  0
ARC
  5
920
  8
0
  6
AUSGEZOGEN
 62
     3
 10
226.5000000000001137
 20
452.3952485374288131
 30
0.0
 40
24.5999999999997705
210
0.0
220
-0.0000000000000002
230
-1.0
 50
0.0000000000002672
 51
24.9999999999987885
  0
ARC
  5
921
  8
0
  6
AUSGEZOGEN
 62
     3
 10
173.4999999999996874
 20
452.3952485374288131
 30
0.0
 40
24.5999999999997492
210
0.0
220
-0.0000000000000002
230
-1.0
 50
155.0000000000011084
 51
179.9999999999996874
  0
LINE
  5
922
  8
0
  6
AUSGEZOGEN
 62
     3
 10
-148.9000000000000057
 20
452.3952485374289267
 30
-0.0000000000001005
 11
-148.9000000000000057
 21
445.4364250573929098
 31
-0.0000000000000989
210
0.0
220
1.0
230
-0.0000000000000002
  0
LINE
  5
923
  8
0
  6
AUSGEZOGEN
 62
     3
 10
-251.0999999999999091
 20
452.3952485374289267
 30
-0.0000000000001005
 11
-251.0999999999999091
 21
445.4364250573929098
 31
-0.0000000000000989
210
0.0
220
1.0
230
-0.0000000000000002
  0
ARC
  5
924
  8
0
  6
AUSGEZOGEN
 62
     3
 10
225.555342396712291
 20
445.4891654508469969
 30
0.0
 40
25.5447120480600809
210
0.0
220
-0.0000000000000002
230
-1.0
 50
335.0636027247422248
 51
359.8817052979130722
  0
ARC
  5
925
  8
0
  6
AUSGEZOGEN
 62
     3
 10
174.4446576032875953
 20
445.4891654508469969
 30
0.0
 40
25.5447120480600809
210
0.0
220
-0.0000000000000002
230
-1.0
 50
180.1182947020868994
 51
204.9363972752578036
  0
ARC
  5
926
  8
0
  6
AUSGEZOGEN
 62
     3
 10
259.6000000000007049
 20
429.6598669368046899
 30
0.0
 40
12.0000000000006697
210
0.0
220
-0.0000000000000002
230
-1.0
 50
155.0636027247439017
 51
179.9999999999994031
  0
ARC
  5
927
  8
0
  6
AUSGEZOGEN
 62
     3
 10
140.3999999999992099
 20
429.6598669368046899
 30
0.0
 40
12.0000000000006803
210
0.0
220
-0.0000000000000002
230
-1.0
 50
0.0000000000005471
 51
24.9363972752560308
  0
LINE
  5
928
  8
0
  6
AUSGEZOGEN
 62
     3
 10
-152.399999999999892
 20
429.6598669368048036
 30
-0.0000000000000954
 11
-152.399999999999892
 21
410.3887264174171037
 31
-0.0000000000000911
210
0.0
220
1.0
230
-0.0000000000000002
  0
LINE
  5
929
  8
0
  6
AUSGEZOGEN
 62
     3
 10
-247.5999999999999091
 20
429.6598669368048036
 30
-0.0000000000000954
 11
-247.5999999999999091
 21
410.3887264174171037
 31
-0.0000000000000911
210
0.0
220
1.0
230
-0.0000000000000002
  0
ARC
  5
92A
  8
0
  6
AUSGEZOGEN
 62
     3
 10
235.5999999999980048
 20
410.3887264174177858
 30
0.0
 40
12.0000000000020304
210
0.0
220
-0.0000000000000002
230
-1.0
 50
327.6719358778395872
 51
359.9999999999968168
  0
ARC
  5
92B
  8
0
  6
AUSGEZOGEN
 62
     3
 10
164.4000000000017963
 20
410.3887264174177858
 30
0.0
 40
12.0000000000020197
210
0.0
220
-0.0000000000000002
230
-1.0
 50
180.0000000000032117
 51
212.3280641221604128
  0
ARC
  5
92C
  8
0
  6
AUSGEZOGEN
 62
     3
 10
252.4999999999994884
 20
399.6934003354315905
 30
0.0
 40
7.999999999999531
210
0.0
220
-0.0000000000000002
230
-1.0
 50
147.671935877836404
 51
180.0000000000015064
  0
ARC
  5
92D
  8
0
  6
AUSGEZOGEN
 62
     3
 10
147.5000000000003979
 20
399.6934003354315905
 30
0.0
 40
7.9999999999995453
210
0.0
220
-0.0000000000000002
230
-1.0
 50
359.9999999999984084
 51
32.3280641221635605
  0
LINE
  5
92E
  8
0
  6
AUSGEZOGEN
 62
     3
 10
-155.4999999999998863
 20
399.69340033543142
 30
-0.0000000000000887
 11
-155.4999999999998863
 21
350.0000000000006821
 31
-0.0000000000000777
210
0.0
220
1.0
230
-0.0000000000000002
  0
LINE
  5
92F
  8
0
  6
AUSGEZOGEN
 62
     3
 10
-244.4999999999998863
 20
399.69340033543142
 30
-0.0000000000000887
 11
-244.4999999999998863
 21
349.9999999999998863
 31
-0.0000000000000777
210
0.0
220
1.0
230
-0.0000000000000002
  0
ARC
  5
930
  8
0
  6
AUSGEZOGEN
 62
     3
 10
66.4999999999993747
 20
350.0000000000006253
 30
0.0
 40
178.0000000000009095
210
0.0
220
-0.0000000000000002
230
-1.0
 50
303.0765190271081906
 51
359.9999999999997726
  0
ARC
  5
931
  8
0
  6
AUSGEZOGEN
 62
     3
 10
-66.49999999999973
 20
350.0000000000003979
 30
-0.0000000000000777
 40
89.0000000000005258
 50
179.999999999999801
 51
236.9234809728916957
  0
LINE
  5
932
  8
0
  6
AUSGEZOGEN
 62
     3
 10
-84.9274845075977538
 20
149.5768780436692964
 30
-0.0000000000000332
 11
-163.6450309848071072
 21
200.8462439126629135
 31
-0.0000000000000446
210
0.0
220
1.0
230
-0.0000000000000002
  0
LINE
  5
933
  8
0
  6
AUSGEZOGEN
 62
     3
 10
-36.3549690151944418
 20
224.153756087337996
 30
-0.0000000000000498
 11
-115.0725154924036957
 21
275.4231219563314994
 31
-0.0000000000000612
210
0.0
220
1.0
230
-0.0000000000000002
  0
ARC
  5
934
  8
0
  6
AUSGEZOGEN
 62
     3
 10
133.5000000000017053
 20
74.9999999999989768
 30
0.0
 40
178.0000000000017906
210
0.0
220
-0.0000000000000002
230
-1.0
 50
123.0765190271078069
 51
179.9999999999996021
  0
ARC
  5
935
  8
0
  6
AUSGEZOGEN
 62
     3
 10
-133.5000000000017906
 20
74.9999999999988773
 30
-0.0000000000000167
 40
89.0000000000018474
 50
0.0
 51
56.9234809728916531
  0
LINE
  5
936
  8
0
  6
VERDECKT
 62
     1
 10
-42.0190016246714322
 20
-0.0000000000000009
 30
0.0
 11
-42.8782110643130068
 21
10.0708088341298208
 31
-0.0000000000000022
210
0.0
220
1.0
230
-0.0000000000000002
  0
LINE
  5
937
  8
0
  6
VERDECKT
 62
     1
 10
42.0190016246715032
 20
0.0000000000000293
 30
0.0
 11
42.8782110643130494
 21
10.0708088341298403
 31
-0.0000000000000022
210
0.0
220
1.0
230
-0.0000000000000002
  0
LINE
  5
938
  8
0
  6
VERDECKT
 62
     1
 10
-42.8782110643129712
 20
10.0708088341298208
 30
-0.0000000000000022
 11
-42.899999999999892
 21
74.9999999999997868
 31
-0.0000000000000167
210
0.0
220
1.0
230
-0.0000000000000002
  0
LINE
  5
939
  8
0
  6
VERDECKT
 62
     1
 10
42.878211064313021
 20
10.0708088341298492
 30
-0.0000000000000022
 11
42.8999999999998423
 21
75.0000000000000853
 31
-0.0000000000000167
210
0.0
220
1.0
230
-0.0000000000000002
  0
LINE
  5
93A
  8
0
  6
VERDECKT
 62
     1
 10
-153.9999999999998863
 20
465.0000000000001137
 30
-0.0000000000001033
 11
-152.6549208981568881
 21
462.1154685574647942
 31
-0.0000000000001026
210
0.0
220
1.0
230
-0.0000000000000002
  0
LINE
  5
93B
  8
0
  6
VERDECKT
 62
     1
 10
-246.0
 20
465.0000000000001137
 30
-0.0000000000001033
 11
-247.3450791018429982
 21
462.1154685574647942
 31
-0.0000000000001026
210
0.0
220
1.0
230
-0.0000000000000002
  0
ARC
  5
93C
  8
0
  6
VERDECKT
 62
     1
 10
226.4999999999980957
 20
452.3952485374285857
 30
0.0
 40
23.000000000001819
210
0.0
220
-0.0000000000000002
230
-1.0
 50
0.0000000000009923
 51
24.99999999999838
  0
ARC
  5
93D
  8
0
  6
VERDECKT
 62
     1
 10
173.5000000000017906
 20
452.3952485374285857
 30
0.0
 40
23.000000000001819
210
0.0
220
-0.0000000000000002
230
-1.0
 50
155.0000000000015916
 51
179.9999999999990052
  0
LINE
  5
93E
  8
0
  6
VERDECKT
 62
     1
 10
-150.5
 20
452.3952485374289267
 30
-0.0000000000001005
 11
-150.5
 21
445.2998649610192956
 31
-0.0000000000000989
210
0.0
220
1.0
230
-0.0000000000000002
  0
LINE
  5
93F
  8
0
  6
VERDECKT
 62
     1
 10
-249.4999999999998863
 20
452.3952485374289267
 30
-0.0000000000001005
 11
-249.4999999999998863
 21
445.2998649610192956
 31
-0.0000000000000989
210
0.0
220
1.0
230
-0.0000000000000002
  0
ARC
  5
940
  8
0
  6
VERDECKT
 62
     1
 10
226.099033852059506
 20
445.36859803967468
 30
0.0
 40
23.4010670887709615
210
0.0
220
-0.0000000000000002
230
-1.0
 50
334.8779398133646055
 51
359.8317119058144726
  0
ARC
  5
941
  8
0
  6
VERDECKT
 62
     1
 10
173.9009661479404087
 20
445.36859803967468
 30
0.0
 40
23.4010670887709402
210
0.0
220
-0.0000000000000002
230
-1.0
 50
180.1682880941854137
 51
205.1220601866355082
  0
ARC
  5
942
  8
0
  6
VERDECKT
 62
     1
 10
259.5999999999991132
 20
429.6598669368048036
 30
0.0
 40
13.5999999999991594
210
0.0
220
-0.0000000000000002
230
-1.0
 50
154.8779398133654013
 51
180.0
  0
ARC
  5
943
  8
0
  6
VERDECKT
 62
     1
 10
140.4000000000008015
 20
429.6598669368048036
 30
0.0
 40
13.5999999999991399
210
0.0
220
-0.0000000000000002
230
-1.0
 50
0.0
 51
25.1220601866346414
  0
LINE
  5
944
  8
0
  6
VERDECKT
 62
     1
 10
-154.0
 20
429.6598669368048036
 30
-0.0000000000000954
 11
-154.0
 21
410.3887264174171037
 31
-0.0000000000000911
210
0.0
220
1.0
230
-0.0000000000000002
  0
LINE
  5
945
  8
0
  6
VERDECKT
 62
     1
 10
-245.9999999999998863
 20
429.6598669368048036
 30
-0.0000000000000954
 11
-245.9999999999998863
 21
410.3887264174171037
 31
-0.0000000000000911
210
0.0
220
1.0
230
-0.0000000000000002
  0
ARC
  5
946
  8
0
  6
VERDECKT
 62
     1
 10
235.600000000004286
 20
410.3887264174155121
 30
0.0
 40
10.3999999999956092
210
0.0
220
-0.0000000000000002
230
-1.0
 50
327.6719358778328228
 51
0.0000000000087783
  0
ARC
  5
947
  8
0
  6
VERDECKT
 62
     1
 10
164.3999999999954866
 20
410.3887264174155121
 30
0.0
 40
10.3999999999956003
210
0.0
220
-0.0000000000000002
230
-1.0
 50
179.9999999999911893
 51
212.3280641221672056
  0
ARC
  5
948
  8
0
  6
VERDECKT
 62
     1
 10
252.4999999999980957
 20
399.6934003354318179
 30
0.0
 40
9.5999999999981185
210
0.0
220
-0.0000000000000002
230
-1.0
 50
147.6719358778316007
 51
180.0000000000019895
  0
ARC
  5
949
  8
0
  6
VERDECKT
 62
     1
 10
147.5000000000017906
 20
399.6934003354318179
 30
0.0
 40
9.5999999999981451
210
0.0
220
-0.0000000000000002
230
-1.0
 50
359.9999999999980105
 51
32.3280641221683709
  0
LINE
  5
94A
  8
0
  6
VERDECKT
 62
     1
 10
-157.0999999999999091
 20
399.69340033543142
 30
-0.0000000000000887
 11
-157.0999999999999091
 21
349.9999999999997158
 31
-0.0000000000000777
210
0.0
220
1.0
230
-0.0000000000000002
  0
LINE
  5
94B
  8
0
  6
VERDECKT
 62
     1
 10
-242.899999999999892
 20
399.69340033543142
 30
-0.0000000000000887
 11
-242.899999999999892
 21
349.9999999999996021
 31
-0.0000000000000777
210
0.0
220
1.0
230
-0.0000000000000002
  0
ARC
  5
94C
  8
0
  6
VERDECKT
 62
     1
 10
66.4999999999995453
 20
350.0000000000003979
 30
0.0
 40
176.4000000000006025
210
0.0
220
-0.0000000000000002
230
-1.0
 50
303.0765190271081906
 51
359.9999999999997158
  0
ARC
  5
94D
  8
0
  6
VERDECKT
 62
     1
 10
-66.4999999999999147
 20
350.0000000000002842
 30
-0.0000000000000777
 40
90.6000000000002075
 50
180.0000000000003126
 51
236.9234809728920084
  0
LINE
  5
94E
  8
0
  6
VERDECKT
 62
     1
 10
-84.054270745936563
 20
150.9175859635554104
 30
-0.0000000000000335
 11
-162.7718172231460017
 21
202.1869518325491129
 31
-0.0000000000000449
210
0.0
220
1.0
230
-0.0000000000000002
  0
LINE
  5
94F
  8
0
  6
VERDECKT
 62
     1
 10
-37.2281827768553129
 20
222.8130481674515977
 30
-0.0000000000000495
 11
-115.9457292540646023
 21
274.0824140364451864
 31
-0.0000000000000609
210
0.0
220
1.0
230
-0.0000000000000002
  0
ARC
  5
950
  8
0
  6
VERDECKT
 62
     1
 10
133.5000000000017906
 20
74.9999999999989058
 30
0.0
 40
176.4000000000017963
210
0.0
220
-0.0000000000000002
230
-1.0
 50
123.0765190271079064
 51
179.9999999999996021
  0
ARC
  5
951
  8
0
  6
VERDECKT
 62
     1
 10
-133.5000000000019043
 20
74.9999999999988489
 30
-0.0000000000000167
 40
90.6000000000018701
 50
0.0000000000005725
 51
56.9234809728922215
  0
ENDBLK
  5
953
  8
0
  0
ENDSEC
  0
SECTION
  2
ENTITIES
  0
TEXT
  5
156
  8
VOLL
 10
359.1360264879136253
 20
32.2037217760458034
 30
0.0
 40
1.8
  1

  7
GREEKS
  0
TEXT
  5
157
  8
TEXT
 10
690.9682946915064576
 20
37.7619573092713381
 30
0.0
 40
2.5
  1
  
  7
GREEKS
 72
     1
 11
693.2301994534113874
 21
37.7619573092713381
 31
0.0
  0
TEXT
  5
158
  8
BEM
 10
935.0880120039885242
 20
173.3208393396735119
 30
0.0
 40
2.5
  1
 
 72
     4
 11
936.2189643849410459
 21
173.3208393396735119
 31
0.0
  0
TEXT
  5
15A
  8
BEM
 10
514.2756286447093999
 20
52.5371326657223392
 30
0.0
 40
2.5
  1

  7
GREEKS
  0
TEXT
  5
15B
  8
VOLL
 10
500.2094356249879752
 20
32.3538720086872402
 30
0.0
 40
1.8
  1

  7
GREEKS
  0
TEXT
  5
15C
  8
BEM
 10
534.6975004642727072
 20
37.0795963319078368
 30
0.0
 40
2.5
  1

 41
0.8
  7
GREEKS
  0
TEXT
  5
15D
  8
BEM
 10
534.6975004642727072
 20
32.3858277778556811
 30
0.0
 40
2.5
  1

 41
0.8
  7
GREEKS
  0
TEXT
  5
15E
  8
BEM
 10
534.6975004642727072
 20
27.1479839591921888
 30
0.0
 40
2.5
  1

 41
0.8
  7
GREEKS
  0
TEXT
  5
15F
  8
BEM
 10
534.6245559868981445
 20
22.6427950090945593
 30
0.0
 40
1.8
  1

 41
0.8
  7
GREEKS
  0
TEXT
  5
160
  8
BEM
 10
521.9409851072870197
 20
48.2343841053198403
 30
0.0
 40
2.0
  1

 41
0.8
  7
GREEKS
 72
     1
 11
521.9409851072870197
 21
48.2343841053198403
 31
0.0
  0
TEXT
  5
161
  8
TEXT
 10
832.0417038285810349
 20
37.912107541912782
 30
0.0
 40
2.5
  1
  
  7
GREEKS
 72
     1
 11
834.303608590485851
 21
37.912107541912782
 31
0.0
  0
TEXT
  5
162
  8
BEM
 10
1076.1614211410631015
 20
173.4709895723150055
 30
0.0
 40
2.5
  1
 
 72
     4
 11
1077.292373522014941
 21
173.4709895723150055
 31
0.0
  0
TEXT
  5
166
  8
VOLL
 10
455.0275751403322033
 20
189.1479780847651
 30
0.0
 40
1.8
  1

  7
GREEKS
  0
TEXT
  5
167
  8
TEXT
 10
786.8598433439251494
 20
194.7062136179906133
 30
0.0
 40
2.5
  1
  
  7
GREEKS
 72
     1
 11
789.1217481058299654
 21
194.7062136179906133
 31
0.0
  0
TEXT
  5
168
  8
BEM
 10
1030.9795606564071022
 20
330.2650956483927871
 30
0.0
 40
2.5
  1
 
 72
     4
 11
1032.1105130373589418
 21
330.2650956483927871
 31
0.0
  0
TEXT
  5
169
  8
VOLL
 10
612.5622922174937912
 20
194.7035337198362868
 30
0.0
 40
1.8
  1

  7
GREEKS
  0
TEXT
  5
16A
  8
BEM
 10
647.0503570567783527
 20
199.4292580430569046
 30
0.0
 40
2.5
  1

 41
0.8
  7
GREEKS
  0
TEXT
  5
16B
  8
BEM
 10
647.0503570567783527
 20
194.7354894890046921
 30
0.0
 40
2.5
  1

 41
0.8
  7
GREEKS
  0
TEXT
  5
16C
  8
BEM
 10
647.0503570567783527
 20
189.4976456703411998
 30
0.0
 40
2.5
  1

 41
0.8
  7
GREEKS
  0
TEXT
  5
16D
  8
BEM
 10
646.9774125794040174
 20
184.9924567202436094
 30
0.0
 40
1.8
  1

 41
0.8
  7
GREEKS
  0
TEXT
  5
16E
  8
TEXT
 10
944.3945604210866804
 20
200.2617692530618001
 30
0.0
 40
2.5
  1
  
  7
GREEKS
 72
     1
 11
946.6564651829916102
 21
200.2617692530618001
 31
0.0
  0
TEXT
  5
16F
  8
BEM
 10
1188.514277733569088
 20
335.8206512834640876
 30
0.0
 40
2.5
  1
 
 72
     4
 11
1189.6452301145209276
 21
335.8206512834640876
 31
0.0
  0
TEXT
  5
172
  8
VOLL
 10
454.1351803341311779
 20
211.2759977528519073
 30
0.0
 40
1.8
  1

  7
GREEKS
  0
TEXT
  5
173
  8
TEXT
 10
785.9674485377239535
 20
216.8342332860775059
 30
0.0
 40
2.5
  1
  
  7
GREEKS
 72
     1
 11
788.2293532996287695
 21
216.8342332860775059
 31
0.0
  0
TEXT
  5
174
  8
BEM
 10
1030.08716585020602
 20
352.3931153164796797
 30
0.0
 40
2.5
  1
 
 72
     4
 11
1031.2181182311580869
 21
352.3931153164796797
 31
0.0
  0
TEXT
  5
175
  8
BEM
 10
619.4807934137810435
 20
251.4292284514376092
 30
0.0
 40
2.5
  1

  7
GREEKS
  0
TEXT
  5
176
  8
VOLL
 10
605.4146003940595619
 20
231.2459677944025032
 30
0.0
 40
1.8
  1

  7
GREEKS
  0
TEXT
  5
177
  8
BEM
 10
639.9026652333443508
 20
235.9716921176230926
 30
0.0
 40
2.5
  1

 41
0.8
  7
GREEKS
  0
TEXT
  5
178
  8
BEM
 10
639.9026652333443508
 20
231.2779235635709085
 30
0.0
 40
2.5
  1

 41
0.8
  7
GREEKS
  0
TEXT
  5
179
  8
BEM
 10
639.9026652333443508
 20
226.0400797449073877
 30
0.0
 40
2.5
  1

 41
0.8
  7
GREEKS
  0
TEXT
  5
17A
  8
BEM
 10
639.8297207559699018
 20
221.5348907948097974
 30
0.0
 40
1.8
  1

 41
0.8
  7
GREEKS
  0
TEXT
  5
17B
  8
BEM
 10
627.1461498763585496
 20
247.1264798910351033
 30
0.0
 40
2.0
  1

 41
0.8
  7
GREEKS
 72
     1
 11
627.1461498763585496
 21
247.1264798910351033
 31
0.0
  0
TEXT
  5
17C
  8
TEXT
 10
937.2468685976525649
 20
236.8042033276279881
 30
0.0
 40
2.5
  1
  
  7
GREEKS
 72
     1
 11
939.5087733595572672
 21
236.8042033276279881
 31
0.0
  0
TEXT
  5
17D
  8
BEM
 10
1181.3665859101349724
 20
372.3630853580302755
 30
0.0
 40
2.5
  1
 
 72
     4
 11
1182.4975382910870394
 21
372.3630853580302755
 31
0.0
  0
TEXT
  5
17E
  8
VOLL
 10
406.6330629752692971
 20
258.0474683094898865
 30
0.0
 40
1.8
  1

  7
GREEKS
  0
TEXT
  5
17F
  8
TEXT
 10
738.4653311788622432
 20
263.6057038427153998
 30
0.0
 40
2.5
  1
  
  7
GREEKS
 72
     1
 11
740.7272359407669455
 21
263.6057038427153998
 31
0.0
  0
TEXT
  5
180
  8
BEM
 10
982.5850484913443097
 20
399.1645858731176872
 30
0.0
 40
2.5
  1
 
 72
     4
 11
983.7160008722968314
 21
399.1645858731176872
 31
0.0
  0
TEXT
  5
181
  8
VOLL
 10
564.1677800524307713
 20
263.6030239445610732
 30
0.0
 40
1.8
  1

  7
GREEKS
  0
TEXT
  5
182
  8
BEM
 10
598.6558448917154465
 20
268.3287482677818048
 30
0.0
 40
2.5
  1

 41
0.8
  7
GREEKS
  0
TEXT
  5
183
  8
BEM
 10
598.6558448917154465
 20
263.6349797137295923
 30
0.0
 40
2.5
  1

 41
0.8
  7
GREEKS
  0
TEXT
  5
184
  8
BEM
 10
598.6558448917154465
 20
258.3971358950661283
 30
0.0
 40
2.5
  1

 41
0.8
  7
GREEKS
  0
TEXT
  5
185
  8
BEM
 10
598.5829004143411112
 20
253.8919469449685096
 30
0.0
 40
1.8
  1

 41
0.8
  7
GREEKS
  0
TEXT
  5
186
  8
TEXT
 10
896.0000482560236605
 20
269.1612594777867002
 30
0.0
 40
2.5
  1
  
  7
GREEKS
 72
     1
 11
898.2619530179285903
 21
269.1612594777867002
 31
0.0
  0
TEXT
  5
187
  8
BEM
 10
1140.1197655685059544
 20
404.720141508188874
 30
0.0
 40
2.5
  1
 
 72
     4
 11
1141.2507179494580214
 21
404.720141508188874
 31
0.0
  0
TEXT
  5
188
  8
VOLL
 10
407.3527920181178956
 20
232.1432694743415937
 30
0.0
 40
1.8
  1

  7
GREEKS
  0
TEXT
  5
189
  8
TEXT
 10
739.1850602217108417
 20
237.701505007567107
 30
0.0
 40
2.5
  1
  
  7
GREEKS
 72
     1
 11
741.446964983615544
 21
237.701505007567107
 31
0.0
  0
TEXT
  5
18A
  8
BEM
 10
983.3047775341927945
 20
373.2603870379692808
 30
0.0
 40
2.5
  1
 
 72
     4
 11
984.4357299151452025
 21
373.2603870379692808
 31
0.0
  0
TEXT
  5
18B
  8
VOLL
 10
564.8875090952793698
 20
237.6988251094128088
 30
0.0
 40
1.8
  1

  7
GREEKS
  0
TEXT
  5
18C
  8
BEM
 10
599.375573934564045
 20
242.4245494326333983
 30
0.0
 40
2.5
  1

 41
0.8
  7
GREEKS
  0
TEXT
  5
18D
  8
BEM
 10
599.375573934564045
 20
237.7307808785812142
 30
0.0
 40
2.5
  1

 41
0.8
  7
GREEKS
  0
TEXT
  5
18E
  8
BEM
 10
599.375573934564045
 20
232.4929370599176934
 30
0.0
 40
2.5
  1

 41
0.8
  7
GREEKS
  0
TEXT
  5
18F
  8
BEM
 10
599.3026294571897097
 20
227.9877481098201031
 30
0.0
 40
1.8
  1

 41
0.8
  7
GREEKS
  0
TEXT
  5
190
  8
TEXT
 10
896.7197772988723727
 20
243.2570606426382938
 30
0.0
 40
2.5
  1
  
  7
GREEKS
 72
     1
 11
898.9816820607773025
 21
243.2570606426382938
 31
0.0
  0
TEXT
  5
191
  8
BEM
 10
1140.8394946113539845
 20
378.8159426730405812
 30
0.0
 40
2.5
  1
 
 72
     4
 11
1141.9704469923060515
 21
378.8159426730405812
 31
0.0
  0
TEXT
  5
192
  8
BEM
 10
421.4189850378393203
 20
252.3265301313766997
 30
0.0
 40
2.5
  1

  7
GREEKS
  0
TEXT
  5
193
  8
VOLL
 10
407.3527920181178956
 20
232.1432694743415937
 30
0.0
 40
1.8
  1

  7
GREEKS
  0
TEXT
  5
194
  8
BEM
 10
441.8408568574025139
 20
236.8689937975620978
 30
0.0
 40
2.5
  1

 41
0.8
  7
GREEKS
  0
TEXT
  5
195
  8
BEM
 10
441.8408568574025139
 20
232.175225243509999
 30
0.0
 40
2.5
  1

 41
0.8
  7
GREEKS
  0
TEXT
  5
196
  8
BEM
 10
441.8408568574025139
 20
226.9373814248465067
 30
0.0
 40
2.5
  1

 41
0.8
  7
GREEKS
  0
TEXT
  5
197
  8
BEM
 10
429.0843415004168833
 20
248.0237815709741938
 30
0.0
 40
2.0
  1

 41
0.8
  7
GREEKS
 72
     1
 11
429.0843415004168833
 21
248.0237815709741938
 31
0.0
  0
TEXT
  5
198
  8
TEXT
 10
739.1850602217108417
 20
237.701505007567107
 30
0.0
 40
2.5
  1
  
  7
GREEKS
 72
     1
 11
741.446964983615544
 21
237.701505007567107
 31
0.0
  0
TEXT
  5
199
  8
BEM
 10
983.3047775341927945
 20
373.2603870379692808
 30
0.0
 40
2.5
  1
 
 72
     4
 11
984.4357299151452025
 21
373.2603870379692808
 31
0.0
  0
INSERT
  5
915
  8
0
  2
A$C70DC150F
 10
0.0000000000000284
 20
0.0000000000000146
 30
0.0
  0
INSERT
  5
954
  8
0
  2
A$C29500FE0
 10
0.0000000000001927
 20
94.5000000000000568
 30
0.0
  0
VIEWPORT
  5
7E2
 67
     1
  8
0
 10
6.3114539315743112
 20
2.7299483837647309
 30
0.0
 40
24.8872810847102599
 41
13.2193051384966296
 68
     1
 69
     1
1001
ACAD
1000
MVIEW
1002
{
1070
    16
1010
0.0
1020
0.0
1030
0.0
1010
0.0
1020
0.0
1030
1.0
1040
0.0
1040
13.2193051384966296
1040
6.3114539315743112
1040
2.7299483837647309
1040
50.0
1040
0.0
1040
0.0
1070
     0
1070
   500
1070
     1
1070
     1
1070
     0
1070
     0
1070
     0
1070
     0
1040
0.0
1040
0.0
1040
0.0
1040
10.0
1040
10.0
1040
10.0
1040
10.0
1070
     0
1002
{
1002
}
1002
}
  0
ENDSEC
  0
EOF
