  0
SECTION
  2
HEADER
  9
$ACADVER
  1
AC1009
  9
$INSBASE
 10
0.0
 20
0.0
 30
0.0
  9
$EXTMIN
 10
-275.0171064240963119
 20
-42.1423045800236125
 30
-0.0126333134397783
  9
$EXTMAX
 10
75.0472029865843524
 20
511.8272784809871041
 30
0.0189518979968853
  9
$LIMMIN
 10
0.0
 20
0.0
  9
$LIMMAX
 10
419.9999999999998863
 20
594.0
  9
$ORTHOMODE
 70
     1
  9
$REGENMODE
 70
     1
  9
$FILLMODE
 70
     1
  9
$QTEXTMODE
 70
     0
  9
$MIRRTEXT
 70
     1
  9
$DRAGMODE
 70
     2
  9
$LTSCALE
 40
20.0
  9
$OSMODE
 70
  1327
  9
$ATTMODE
 70
     1
  9
$TEXTSIZE
 40
3.5
  9
$TRACEWID
 40
0.5
  9
$TEXTSTYLE
  7
STANDARD
  9
$CLAYER
  8
DEFPOINTS
  9
$CELTYPE
  6
BYLAYER
  9
$CECOLOR
 62
   256
  9
$DIMSCALE
 40
2.0
  9
$DIMASZ
 40
3.5
  9
$DIMEXO
 40
1.0
  9
$DIMDLI
 40
7.0
  9
$DIMRND
 40
0.0
  9
$DIMDLE
 40
0.0
  9
$DIMEXE
 40
1.0
  9
$DIMTP
 40
0.0
  9
$DIMTM
 40
0.0
  9
$DIMTXT
 40
3.5
  9
$DIMCEN
 40
1.5
  9
$DIMTSZ
 40
0.0
  9
$DIMTOL
 70
     0
  9
$DIMLIM
 70
     0
  9
$DIMTIH
 70
     0
  9
$DIMTOH
 70
     0
  9
$DIMSE1
 70
     0
  9
$DIMSE2
 70
     0
  9
$DIMTAD
 70
     1
  9
$DIMZIN
 70
     8
  9
$DIMBLK
  1

  9
$DIMASO
 70
     1
  9
$DIMSHO
 70
     0
  9
$DIMPOST
  1

  9
$DIMAPOST
  1

  9
$DIMALT
 70
     0
  9
$DIMALTD
 70
     2
  9
$DIMALTF
 40
25.3999999999999986
  9
$DIMLFAC
 40
1.0
  9
$DIMTOFL
 70
     1
  9
$DIMTVP
 40
0.0
  9
$DIMTIX
 70
     0
  9
$DIMSOXD
 70
     0
  9
$DIMSAH
 70
     0
  9
$DIMBLK1
  1

  9
$DIMBLK2
  1

  9
$DIMSTYLE
  2
STANDARD
  9
$DIMCLRD
 70
     0
  9
$DIMCLRE
 70
     0
  9
$DIMCLRT
 70
     1
  9
$DIMTFAC
 40
0.5142857142857143
  9
$DIMGAP
 40
1.5
  9
$LUNITS
 70
     2
  9
$LUPREC
 70
     2
  9
$SKETCHINC
 40
1.0
  9
$FILLETRAD
 40
82.5
  9
$AUNITS
 70
     0
  9
$AUPREC
 70
     0
  9
$MENU
  1
ACAD
  9
$ELEVATION
 40
0.0
  9
$PELEVATION
 40
0.0
  9
$THICKNESS
 40
0.0
  9
$LIMCHECK
 70
     0
  9
$BLIPMODE
 70
     0
  9
$CHAMFERA
 40
0.0
  9
$CHAMFERB
 40
0.0
  9
$SKPOLY
 70
     0
  9
$TDCREATE
 40
2455397.8646990740671754
  9
$TDUPDATE
 40
2458382.5753009258769453
  9
$TDINDWG
 40
0.0631961806
  9
$TDUSRTIMER
 40
0.0631961806
  9
$USRTIMER
 70
     1
  9
$ANGBASE
 50
0.0
  9
$ANGDIR
 70
     0
  9
$PDMODE
 70
     0
  9
$PDSIZE
 40
0.0
  9
$PLINEWID
 40
0.0
  9
$COORDS
 70
     1
  9
$SPLFRAME
 70
     0
  9
$SPLINETYPE
 70
     6
  9
$SPLINESEGS
 70
     8
  9
$ATTDIA
 70
     0
  9
$ATTREQ
 70
     0
  9
$HANDLING
 70
     1
  9
$HANDSEED
  5
B17
  9
$SURFTAB1
 70
     6
  9
$SURFTAB2
 70
     6
  9
$SURFTYPE
 70
     6
  9
$SURFU
 70
     6
  9
$SURFV
 70
     6
  9
$UCSNAME
  2

  9
$UCSORG
 10
0.0
 20
0.0
 30
0.0
  9
$UCSXDIR
 10
1.0
 20
0.0
 30
0.0
  9
$UCSYDIR
 10
0.0
 20
1.0
 30
0.0
  9
$PUCSNAME
  2

  9
$PUCSORG
 10
0.0
 20
0.0
 30
0.0
  9
$PUCSXDIR
 10
1.0
 20
0.0
 30
0.0
  9
$PUCSYDIR
 10
0.0
 20
1.0
 30
0.0
  9
$USERI1
 70
     0
  9
$USERI2
 70
     0
  9
$USERI3
 70
     0
  9
$USERI4
 70
     0
  9
$USERI5
 70
     0
  9
$USERR1
 40
0.0
  9
$USERR2
 40
0.0
  9
$USERR3
 40
0.0
  9
$USERR4
 40
0.0
  9
$USERR5
 40
0.0
  9
$WORLDVIEW
 70
     1
  9
$SHADEDGE
 70
     3
  9
$SHADEDIF
 70
    70
  9
$TILEMODE
 70
     1
  9
$MAXACTVP
 70
    16
  9
$PLIMCHECK
 70
     0
  9
$PEXTMIN
 10
-0.1487886689261089
 20
-0.1776275418930595
 30
-0.0000000000112498
  9
$PEXTMAX
 10
8.2519374628927693
 20
8.2288587315762918
 30
0.0000000000002956
  9
$PLIMMIN
 10
-0.2500002402958907
 20
-0.2499999962453767
  9
$PLIMMAX
 10
10.7499995194082203
 20
8.2499997634587334
  9
$UNITMODE
 70
     0
  9
$VISRETAIN
 70
     0
  9
$PLINEGEN
 70
     0
  9
$PSLTSCALE
 70
     0
  0
ENDSEC
  0
SECTION
  2
TABLES
  0
TABLE
  2
VPORT
 70
     1
  0
VPORT
  2
*ACTIVE
 70
     0
 10
0.0
 20
0.0
 11
1.0
 21
1.0
 12
2.815051333001918
 22
48.8924861875423389
 13
0.0
 23
0.0
 14
1.0
 24
1.0
 15
10.0
 25
10.0
 16
-0.0000000000003837
 26
0.0
 36
1748.6555523807760437
 17
-102.8000030517578978
 27
185.9500007629393963
 37
207.000000000000199
 40
558.1139939068536933
 41
1.8826466916354549
 42
50.0
 43
0.0
 44
0.0
 50
0.0
 51
0.0
 71
     0
 72
  1500
 73
     1
 74
     0
 75
     0
 76
     0
 77
     0
 78
     0
  0
ENDTAB
  0
TABLE
  2
LTYPE
 70
     3
  0
LTYPE
  2
CONTINUOUS
 70
     0
  3
Solid line
 72
    65
 73
     0
 40
0.0
  0
LTYPE
  2
VERDECKT
 70
     0
  3
Verdeckt __ __ __ __ __ __ __ __ __ __ __ __ __
 72
    65
 73
     2
 40
0.375
 49
0.25
 49
-0.125
  0
ENDTAB
  0
TABLE
  2
LAYER
 70
    10
  0
LAYER
  2
0
 70
     0
 62
     7
  6
CONTINUOUS
  0
LAYER
  2
VOLL
 70
     0
 62
     1
  6
CONTINUOUS
  0
LAYER
  2
DEFPOINTS
 70
     0
 62
     7
  6
CONTINUOUS
  0
LAYER
  2
ROHR
 70
     0
 62
     9
  6
CONTINUOUS
  0
ENDTAB
  0
TABLE
  2
STYLE
 70
     4
  0
STYLE
  2
STANDARD
 70
     0
 40
0.0
 41
0.8
 50
0.0
 71
     0
 42
3.5
  3
simplex.shx
  4

  0
STYLE
  2
GREEKS
 70
     0
 40
0.0
 41
0.8
 50
0.0
 71
     0
 42
2.5
  3
SIMPLEX.shx
  4

  0
STYLE
  2

 70
     1
 40
0.0
 41
1.0
 50
0.0
 71
     0
 42
2.5
  3
ltypeshp.shx
  4

  0
ENDTAB
  0
TABLE
  2
VIEW
 70
     2
  0
ENDTAB
  0
TABLE
  2
UCS
 70
     0
  0
ENDTAB
  0
TABLE
  2
APPID
 70
     8
  0
APPID
  2
ACAD
 70
     0
  0
APPID
  2
ACAD_NAV_VCDISPLAY
 70
     0
  0
APPID
  2
ACAD_MLEADERVER
 70
     0
  0
APPID
  2
ACAECLAYERSTANDARD
 70
     0
  0
APPID
  2
ACCMTRANSPARENCY
 70
     0
  0
APPID
  2
ACAD_PSEXT
 70
     0
  0
APPID
  2
ACAD_EXEMPT_FROM_CAD_STANDARDS
 70
     0
  0
APPID
  2
ACAD_OBJECT_CHANGE_GUID
 70
     0
  0
ENDTAB
  0
TABLE
  2
DIMSTYLE
 70
     2
  0
DIMSTYLE
  2
STANDARD
 70
     0
  3

  4

  5

  6

  7

 40
1.0
 41
0.18
 42
0.0625
 43
0.38
 44
0.18
 45
0.0
 46
0.0
 47
0.0
 48
0.0
140
0.18
141
0.09
142
0.0
143
25.3999999999999986
144
1.0
145
0.0
146
1.0
147
0.09
 71
     0
 72
     0
 73
     1
 74
     1
 75
     0
 76
     0
 77
     0
 78
     0
170
     0
171
     2
172
     0
173
     0
174
     0
175
     0
176
     0
177
     0
178
     0
  0
ENDTAB
  0
ENDSEC
  0
SECTION
  2
BLOCKS
  0
BLOCK
  8
0
  2
$MODEL_SPACE
 70
     0
 10
0.0
 20
0.0
 30
0.0
  3
$MODEL_SPACE
  1

  0
ENDBLK
  5
36
  8
0
  0
BLOCK
 67
     1
  8
0
  2
$PAPER_SPACE
 70
     0
 10
0.0
 20
0.0
 30
0.0
  3
$PAPER_SPACE
  1

  0
ENDBLK
  5
34
 67
     1
  8
0
  0
BLOCK
  8
0
  2
A$C704F41D4
 70
     0
 10
0.0
 20
0.0
 30
0.0
  3
A$C704F41D4
  1

  0
CIRCLE
  5
A6A
  8
0
  6
CONTINUOUS
 62
     3
 10
-200.0000000000003126
 20
0.000000000000035
 30
-0.0000000000000568
 40
38.099291322533567
  0
CIRCLE
  5
A6B
  8
0
  6
CONTINUOUS
 62
     3
 10
-200.0000000000003126
 20
0.0000000000000313
 30
-0.0000000000000568
 40
35.0
  0
CIRCLE
  5
A6C
  8
0
  6
CONTINUOUS
 62
     3
 10
-200.0000000000003126
 20
0.000000000000035
 30
-0.0000000000000568
 40
39.7653973282763218
  0
CIRCLE
  5
A6D
  8
0
  6
CONTINUOUS
 62
     3
 10
-200.0000000000003126
 20
0.0000000000000344
 30
-0.0000000000000568
 40
42.1000000000000227
  0
CIRCLE
  5
A6E
  8
0
  6
CONTINUOUS
 62
     3
 10
-200.0000000000005116
 20
0.0000000000000295
 30
-0.0000000000000568
 40
34.9000000000000128
  0
ARC
  5
A6F
  8
0
  6
CONTINUOUS
 62
     3
 10
0.000000000000016
 20
-0.0000000000000213
 30
0.0
 40
36.5000000000000426
 50
270.0
 51
90.0
  0
LINE
  5
A70
  8
0
  6
CONTINUOUS
 62
     3
 10
-140.6436107701167941
 20
36.5000000000000213
 30
-0.0000000000000284
 11
-179.0200095328908105
 21
36.5000000000000213
 31
-0.0000000000000568
  0
LINE
  5
A71
  8
0
  6
CONTINUOUS
 62
     3
 10
-179.0200095328908105
 20
-36.4999999999999787
 30
-0.0000000000000568
 11
-140.6436107701167941
 21
-36.4999999999999787
 31
-0.0000000000000284
  0
LINE
  5
A72
  8
0
  6
CONTINUOUS
 62
     3
 10
-59.3563892298795608
 20
-36.4999999999999787
 30
0.0
 11
-140.6436107701167941
 21
-36.4999999999999787
 31
-0.0000000000000142
  0
LINE
  5
A73
  8
0
  6
CONTINUOUS
 62
     3
 10
-59.3563892298795608
 20
36.5000000000000213
 30
0.0
 11
-140.6436107701167941
 21
36.5000000000000213
 31
-0.0000000000000142
  0
LINE
  5
A74
  8
0
  6
CONTINUOUS
 62
     3
 10
-59.3563892298795466
 20
-36.4999999999999929
 30
0.0
 11
-0.0000000000000995
 21
-36.4999999999999929
 31
0.0
  0
LINE
  5
A75
  8
0
  6
CONTINUOUS
 62
     3
 10
-0.0000000000001119
 20
36.5000000000000213
 30
0.0
 11
-59.3563892298795821
 21
36.5000000000000213
 31
0.0
  0
CIRCLE
  5
A76
  8
0
  6
VERDECKT
 62
     1
 10
-200.0000000000003126
 20
0.0000000000000344
 30
-0.0000000000000568
 40
40.5999999999999019
  0
CIRCLE
  5
A77
  8
0
  6
VERDECKT
 62
     1
 10
-200.0000000000003126
 20
0.0000000000000338
 30
-0.0000000000000568
 40
40.6000055945666034
  0
CIRCLE
  5
A78
  8
0
  6
VERDECKT
 62
     1
 10
-200.0000000000003126
 20
0.000000000000033
 30
-0.0000000000000568
 40
38.0999999999999091
  0
CIRCLE
  5
A79
  8
0
  6
VERDECKT
 62
     1
 10
-200.0000000000003126
 20
0.000000000000033
 30
-0.0000000000000568
 40
39.5999999999999091
  0
CIRCLE
  5
A7A
  8
0
  6
VERDECKT
 62
     1
 10
-200.0000000000003126
 20
0.0000000000000313
 30
-0.0000000000000568
 40
36.5
  0
CIRCLE
  5
A7B
  8
0
  6
VERDECKT
 62
     1
 10
-0.0000000000002114
 20
0.0000000000000142
 30
0.0
 40
34.8999999999999986
  0
CIRCLE
  5
A7C
  8
0
  6
VERDECKT
 62
     1
 10
0.000000000000016
 20
0.0000000000000142
 30
0.0
 40
34.9999999999998934
  0
ARC
  5
A7D
  8
0
  6
VERDECKT
 62
     1
 10
0.000000000000016
 20
0.0000000000000426
 30
0.0
 40
36.5000000000000284
 50
90.0
 51
270.0
  0
CIRCLE
  5
A7E
  8
0
  6
VERDECKT
 62
     1
 10
0.0
 20
0.0000000000000097
 30
0.0
 40
34.2943609354774068
  0
CIRCLE
  5
A7F
  8
0
  6
VERDECKT
 62
     1
 10
0.0
 20
0.0000000000000097
 30
0.0
 40
35.8000906917925477
  0
CIRCLE
  5
A80
  8
0
  6
VERDECKT
 62
     1
 10
-200.0000000000003126
 20
0.0000000000000338
 30
-0.0000000000000568
 40
40.6000932431256132
  0
LINE
  5
A81
  8
0
  6
VERDECKT
 62
     1
 10
-140.6436107701215121
 20
34.900000000000027
 30
-0.0000000000000284
 11
-200.0000000000003979
 21
34.9000000000000412
 31
-0.0000000000000568
  0
LINE
  5
A82
  8
0
  6
VERDECKT
 62
     1
 10
-200.0000000000003979
 20
-34.8999999999999773
 30
-0.0000000000000568
 11
-140.6436107701215974
 21
-34.8999999999999773
 31
-0.0000000000000284
  0
LINE
  5
A83
  8
0
  6
VERDECKT
 62
     1
 10
-59.3563892298836535
 20
-34.8999999999999773
 30
0.0
 11
-140.6436107701215121
 21
-34.8999999999999773
 31
-0.0000000000000142
  0
LINE
  5
A84
  8
0
  6
VERDECKT
 62
     1
 10
-59.3563892298836535
 20
34.900000000000027
 30
0.0
 11
-140.6436107701215121
 21
34.900000000000027
 31
-0.0000000000000142
  0
LINE
  5
A85
  8
0
  6
VERDECKT
 62
     1
 10
-59.3563892298836322
 20
-34.8999999999999773
 30
0.0
 11
-0.0000000000002132
 21
-34.8999999999999773
 31
0.0
  0
LINE
  5
A86
  8
0
  6
VERDECKT
 62
     1
 10
-0.0000000000002114
 20
34.9000000000000128
 30
0.0
 11
-59.356389229883689
 21
34.9000000000000199
 31
0.0
  0
LINE
  5
A87
  8
0
  6
VERDECKT
 62
     1
 10
-179.0200095328908105
 20
36.5000000000000213
 30
-0.0000000000000568
 11
-200.0000000000001137
 21
36.5000000000000284
 31
-0.0000000000000568
  0
LINE
  5
A88
  8
0
  6
VERDECKT
 62
     1
 10
-200.0000000000001137
 20
-36.4999999999999716
 30
-0.0000000000000568
 11
-179.0200095328908105
 21
-36.4999999999999787
 31
-0.0000000000000568
  0
ENDBLK
  5
A8A
  8
0
  0
BLOCK
  8
0
  2
A$C6D681F92
 70
     0
 10
0.0
 20
0.0
 30
0.0
  3
A$C6D681F92
  1

  0
LINE
  5
A8E
  8
0
  6
CONTINUOUS
 62
     3
 10
-239.7653973282766913
 20
413.9999999999978968
 30
-0.0000000000000919
 11
-160.2346026717239909
 21
413.9999999999978968
 31
-0.0000000000000919
210
0.0
220
1.0
230
-0.0000000000000002
  0
LINE
  5
A8F
  8
0
  6
CONTINUOUS
 62
     3
 10
-35.8000906917925477
 20
0.0
 30
0.0
 11
35.8000906917925477
 21
0.0
 31
0.0
210
0.0
220
1.0
230
-0.0000000000000002
  0
ARC
  5
A90
  8
0
  6
CONTINUOUS
 62
     3
 10
217.1000000000009891
 20
403.4510775928815178
 30
0.0
 40
24.9999999999993783
210
0.0
220
-0.0000000000000002
230
-1.0
 50
0.0000000000003944
 51
24.9581963123104487
  0
ARC
  5
A91
  8
0
  6
CONTINUOUS
 62
     3
 10
182.899999999999693
 20
403.4510775928815178
 30
0.0
 40
24.9999999999993889
210
0.0
220
-0.0000000000000002
230
-1.0
 50
155.0418036876895087
 51
179.9999999999996021
  0
LINE
  5
A92
  8
0
  6
CONTINUOUS
 62
     3
 10
-157.9000000000004036
 20
403.4510775928816884
 30
-0.0000000000000896
 11
-157.9000000000004036
 21
394.3017199518066036
 31
-0.0000000000000876
210
0.0
220
1.0
230
-0.0000000000000002
  0
LINE
  5
A93
  8
0
  6
CONTINUOUS
 62
     3
 10
-242.1000000000001933
 20
403.4510775928816884
 30
-0.0000000000000896
 11
-242.1000000000001933
 21
394.3017199518066036
 31
-0.0000000000000876
210
0.0
220
1.0
230
-0.0000000000000002
  0
ARC
  5
A94
  8
0
  6
CONTINUOUS
 62
     3
 10
217.1000000000082082
 20
394.3699999999988108
 30
0.0
 40
25.00009324311781
210
0.0
220
-0.0000000000000002
230
-1.0
 50
338.8168456069619197
 51
359.8435140456451222
  0
ARC
  5
A95
  8
0
  6
CONTINUOUS
 62
     3
 10
182.8999999999923887
 20
394.3699999999988108
 30
0.0
 40
25.00009324311781
210
0.0
220
-0.0000000000000002
230
-1.0
 50
180.1564859543547925
 51
201.1831543930381088
  0
ARC
  5
A96
  8
0
  6
CONTINUOUS
 62
     3
 10
251.5999999999986869
 20
381.0000000000003979
 30
0.0
 40
11.9999999999984404
210
0.0
220
-0.0000000000000002
230
-1.0
 50
158.8168456069606123
 51
180.0
  0
ARC
  5
A97
  8
0
  6
CONTINUOUS
 62
     3
 10
148.4000000000019952
 20
381.0000000000003979
 30
0.0
 40
11.9999999999984297
210
0.0
220
-0.0000000000000002
230
-1.0
 50
0.0
 51
21.1831543930393593
  0
LINE
  5
A98
  8
0
  6
CONTINUOUS
 62
     3
 10
-160.4000000000004036
 20
381.0000000000003979
 30
-0.0000000000000846
 11
-160.4000000000004036
 21
364.3887264174172742
 31
-0.0000000000000809
210
0.0
220
1.0
230
-0.0000000000000002
  0
LINE
  5
A99
  8
0
  6
CONTINUOUS
 62
     3
 10
-239.600000000000307
 20
381.0000000000003979
 30
-0.0000000000000846
 11
-239.600000000000307
 21
364.3887264174172742
 31
-0.0000000000000809
210
0.0
220
1.0
230
-0.0000000000000002
  0
ARC
  5
A9A
  8
0
  6
CONTINUOUS
 62
     3
 10
227.5999999999997101
 20
364.3887264174173879
 30
0.0
 40
12.0000000000005702
210
0.0
220
-0.0000000000000002
230
-1.0
 50
327.6719358778382798
 51
359.9999999999993747
  0
ARC
  5
A9B
  8
0
  6
CONTINUOUS
 62
     3
 10
172.4000000000010004
 20
364.3887264174173879
 30
0.0
 40
12.0000000000005702
210
0.0
220
-0.0000000000000002
230
-1.0
 50
180.0000000000003979
 51
212.3280641221616065
  0
ARC
  5
A9C
  8
0
  6
CONTINUOUS
 62
     3
 10
244.5000000000005969
 20
353.6934003354318179
 30
0.0
 40
8.0000000000003304
210
0.0
220
-0.0000000000000002
230
-1.0
 50
147.6719358778395019
 51
179.9999999999996021
  0
ARC
  5
A9D
  8
0
  6
CONTINUOUS
 62
     3
 10
155.5
 20
353.6934003354318179
 30
0.0
 40
8.0000000000003126
210
0.0
220
-0.0000000000000002
230
-1.0
 50
0.0000000000004071
 51
32.3280641221604199
  0
LINE
  5
A9E
  8
0
  6
CONTINUOUS
 62
     3
 10
-163.5000000000003126
 20
353.6934003354318179
 30
-0.0000000000000785
 11
-163.5000000000003126
 21
324.0000000000002842
 31
-0.0000000000000719
210
0.0
220
1.0
230
-0.0000000000000002
  0
LINE
  5
A9F
  8
0
  6
CONTINUOUS
 62
     3
 10
-236.5000000000003126
 20
353.6934003354318179
 30
-0.0000000000000785
 11
-236.5000000000003126
 21
324.0000000000005116
 31
-0.0000000000000719
210
0.0
220
1.0
230
-0.0000000000000002
  0
ARC
  5
AA0
  8
0
  6
CONTINUOUS
 62
     3
 10
82.4999999999961346
 20
324.0000000000026148
 30
0.0
 40
154.0000000000040075
210
0.0
220
-0.0000000000000002
230
-1.0
 50
299.6591502401720959
 51
359.9999999999992042
  0
ARC
  5
AA1
  8
0
  6
CONTINUOUS
 62
     3
 10
-82.4999999999960636
 20
324.0000000000026716
 30
-0.0000000000000719
 40
81.0000000000041069
 50
180.0000000000015064
 51
240.3408497598288136
  0
LINE
  5
AA2
  8
0
  6
CONTINUOUS
 62
     3
 10
-77.4180215116617774
 20
143.8877475165982958
 30
-0.0000000000000319
 11
-158.7052430518990036
 21
190.1763812647371878
 31
-0.0000000000000422
210
0.0
220
1.0
230
-0.0000000000000002
  0
LINE
  5
AA3
  8
0
  6
CONTINUOUS
 62
     3
 10
-41.2947569480973584
 20
207.3236187352609079
 30
-0.000000000000046
 11
-122.5819784883345989
 21
253.6122524833998
 31
-0.0000000000000563
210
0.0
220
1.0
230
-0.0000000000000002
  0
ARC
  5
AA4
  8
0
  6
CONTINUOUS
 62
     3
 10
117.500000000000199
 20
73.4999999999999289
 30
0.0
 40
154.0000000000001137
210
0.0
220
-0.0000000000000002
230
-1.0
 50
119.659150240172707
 51
179.9999999999998863
  0
ARC
  5
AA5
  8
0
  6
CONTINUOUS
 62
     3
 10
-117.5000000000003979
 20
73.4999999999997868
 30
-0.0000000000000163
 40
81.0000000000003268
 50
0.0000000000001399
 51
60.3408497598271722
  0
LINE
  5
AA6
  8
0
  6
CONTINUOUS
 62
     3
 10
36.4999999999998934
 20
73.5000000000000142
 30
-0.0000000000000163
 11
36.4999999999998934
 21
8.0000000000001155
 31
-0.0000000000000018
210
0.0
220
1.0
230
-0.0000000000000002
  0
LINE
  5
AA7
  8
0
  6
CONTINUOUS
 62
     3
 10
-36.4999999999998934
 20
73.5000000000000142
 30
-0.0000000000000163
 11
-36.4999999999998934
 21
8.0000000000001155
 31
-0.0000000000000018
210
0.0
220
1.0
230
-0.0000000000000002
  0
LINE
  5
AA8
  8
0
  6
CONTINUOUS
 62
     3
 10
-35.8000906917925974
 20
-0.0000000000000062
 30
0.0
 11
-36.4999999999999503
 21
8.0000000000001101
 31
-0.0000000000000018
210
0.0
220
1.0
230
-0.0000000000000002
  0
LINE
  5
AA9
  8
0
  6
CONTINUOUS
 62
     3
 10
35.8000906917925974
 20
-0.0000000000000062
 30
0.0
 11
36.4999999999999503
 21
8.0000000000001101
 31
-0.0000000000000018
210
0.0
220
1.0
230
-0.0000000000000002
  0
LINE
  5
AAA
  8
0
  6
VERDECKT
 62
     1
 10
-165.0000000000003126
 20
324.0000000000003979
 30
-0.0000000000000719
 11
-235.0000000000003979
 21
324.0000000000003979
 31
-0.0000000000000719
210
0.0
220
1.0
230
-0.0000000000000002
  0
LINE
  5
AAB
  8
0
  6
VERDECKT
 62
     1
 10
-34.9999999999998934
 20
73.5000000000000142
 30
-0.0000000000000163
 11
34.9999999999998934
 21
73.5000000000000142
 31
-0.0000000000000163
210
0.0
220
1.0
230
-0.0000000000000002
  0
ARC
  5
AAC
  8
0
  6
VERDECKT
 62
     1
 10
217.0999384931523934
 20
403.4510630121782242
 30
0.0
 40
23.5000615068523508
210
0.0
220
-0.0000000000000002
230
-1.0
 50
0.0000355493865721
 51
26.6724744405236507
  0
ARC
  5
AAD
  8
0
  6
VERDECKT
 62
     1
 10
182.9000615068480045
 20
403.451063012178281
 30
0.0
 40
23.5000615068521199
210
0.0
220
-0.0000000000000002
230
-1.0
 50
153.327525559483405
 51
179.9999644506135041
  0
LINE
  5
AAE
  8
0
  6
VERDECKT
 62
     1
 10
-159.3999972027170884
 20
403.4510775928816884
 30
-0.0000000000000896
 11
-159.3999972027170884
 21
394.4341832605712739
 31
-0.0000000000000876
210
0.0
220
1.0
230
-0.0000000000000002
  0
LINE
  5
AAF
  8
0
  6
VERDECKT
 62
     1
 10
-240.6000027972835085
 20
403.4510775928816884
 30
-0.0000000000000896
 11
-240.6000027972835085
 21
394.4341832605712739
 31
-0.0000000000000876
210
0.0
220
1.0
230
-0.0000000000000002
  0
ARC
  5
AB0
  8
0
  6
VERDECKT
 62
     1
 10
217.0999999999908994
 20
394.3700000000021078
 30
0.0
 40
23.50009324313503
210
0.0
220
-0.0000000000000002
230
-1.0
 50
338.816845606967604
 51
0.1564859543273109
  0
ARC
  5
AB1
  8
0
  6
VERDECKT
 62
     1
 10
182.9000000000096975
 20
394.3700000000021078
 30
0.0
 40
23.5000932431350407
210
0.0
220
-0.0000000000000002
230
-1.0
 50
179.8435140456726913
 51
201.183154393032396
  0
ARC
  5
AB2
  8
0
  6
VERDECKT
 62
     1
 10
251.6000000000015859
 20
381.0
 30
0.0
 40
13.5000000000013092
210
0.0
220
-0.0000000000000002
230
-1.0
 50
158.8168456069674903
 51
179.9999999999984936
  0
ARC
  5
AB3
  8
0
  6
VERDECKT
 62
     1
 10
148.3999999999990962
 20
381.0
 30
0.0
 40
13.5000000000013003
210
0.0
220
-0.0000000000000002
230
-1.0
 50
0.0000000000014503
 51
21.1831543930325097
  0
LINE
  5
AB4
  8
0
  6
VERDECKT
 62
     1
 10
-161.9000000000004036
 20
381.0000000000003979
 30
-0.0000000000000846
 11
-161.9000000000004036
 21
364.3887264174172742
 31
-0.0000000000000809
210
0.0
220
1.0
230
-0.0000000000000002
  0
LINE
  5
AB5
  8
0
  6
VERDECKT
 62
     1
 10
-238.1000000000001933
 20
381.0000000000003979
 30
-0.0000000000000846
 11
-238.1000000000001933
 21
364.3887264174172742
 31
-0.0000000000000809
210
0.0
220
1.0
230
-0.0000000000000002
  0
ARC
  5
AB6
  8
0
  6
VERDECKT
 62
     1
 10
227.5999999999978911
 20
364.3887264174178995
 30
0.0
 40
10.5000000000022702
210
0.0
220
-0.0000000000000002
230
-1.0
 50
327.671935877841122
 51
359.9999999999968736
  0
ARC
  5
AB7
  8
0
  6
VERDECKT
 62
     1
 10
172.4000000000027057
 20
364.3887264174178995
 30
0.0
 40
10.5000000000022702
210
0.0
220
-0.0000000000000002
230
-1.0
 50
180.0000000000030127
 51
212.3280641221589065
  0
ARC
  5
AB8
  8
0
  6
VERDECKT
 62
     1
 10
244.5000000000015916
 20
353.6934003354314768
 30
0.0
 40
9.5000000000012772
210
0.0
220
-0.0000000000000002
230
-1.0
 50
147.6719358778416051
 51
179.9999999999982094
  0
ARC
  5
AB9
  8
0
  6
VERDECKT
 62
     1
 10
155.4999999999990052
 20
353.6934003354314768
 30
0.0
 40
9.5000000000012772
210
0.0
220
-0.0000000000000002
230
-1.0
 50
0.0000000000017175
 51
32.3280641221583878
  0
LINE
  5
ABA
  8
0
  6
VERDECKT
 62
     1
 10
-165.0000000000003126
 20
353.6934003354318179
 30
-0.0000000000000785
 11
-165.0000000000003126
 21
324.0000000000002842
 31
-0.0000000000000719
210
0.0
220
1.0
230
-0.0000000000000002
  0
LINE
  5
ABB
  8
0
  6
VERDECKT
 62
     1
 10
-235.0000000000003979
 20
353.6934003354318179
 30
-0.0000000000000785
 11
-235.0000000000003979
 21
324.0000000000003979
 31
-0.0000000000000719
210
0.0
220
1.0
230
-0.0000000000000002
  0
ARC
  5
ABC
  8
0
  6
VERDECKT
 62
     1
 10
82.5000000000002558
 20
324.0000000000005116
 30
0.0
 40
152.4000000000002046
210
0.0
220
-0.0000000000000002
230
-1.0
 50
299.6591502401727212
 51
359.9999999999996021
  0
ARC
  5
ABD
  8
0
  6
VERDECKT
 62
     1
 10
-82.5000000000001137
 20
324.0000000000005116
 30
-0.0000000000000719
 40
82.600000000000378
 50
179.9999999999998863
 51
240.3408497598261135
  0
LINE
  5
ABE
  8
0
  6
VERDECKT
 62
     1
 10
-76.6262787267103249
 20
145.2781227761873026
 30
-0.0000000000000323
 11
-157.9135002669480912
 21
191.5667565243265926
 31
-0.0000000000000425
210
0.0
220
1.0
230
-0.0000000000000002
  0
LINE
  5
ABF
  8
0
  6
VERDECKT
 62
     1
 10
-42.0864997330570034
 20
205.9332434756763917
 30
-0.0000000000000457
 11
-123.3737212732948052
 21
252.2218772238157101
 31
-0.000000000000056
210
0.0
220
1.0
230
-0.0000000000000002
  0
ARC
  5
AC0
  8
0
  6
VERDECKT
 62
     1
 10
117.5000000000044054
 20
73.4999999999975131
 30
0.0
 40
152.4000000000040984
210
0.0
220
-0.0000000000000002
230
-1.0
 50
119.6591502401715985
 51
179.9999999999998863
  0
ARC
  5
AC1
  8
0
  6
VERDECKT
 62
     1
 10
-117.5000000000044054
 20
73.4999999999975842
 30
-0.0000000000000163
 40
82.6000000000041439
 50
0.0000000000011577
 51
60.3408497598282523
  0
LINE
  5
AC2
  8
0
  6
VERDECKT
 62
     1
 10
-34.2943609354774068
 20
0.0000000000000053
 30
0.0
 11
-34.9999999999998295
 21
8.0654914143630432
 31
-0.0000000000000018
210
0.0
220
1.0
230
-0.0000000000000002
  0
LINE
  5
AC3
  8
0
  6
VERDECKT
 62
     1
 10
34.2943609354774068
 20
-0.0000000000000577
 30
0.0
 11
34.9999999999998295
 21
8.0654914143630432
 31
-0.0000000000000018
210
0.0
220
1.0
230
-0.0000000000000002
  0
LINE
  5
AC4
  8
0
  6
VERDECKT
 62
     1
 10
-34.9999999999998934
 20
8.0654914143630396
 30
-0.0000000000000018
 11
-34.9999999999998934
 21
73.5000000000000142
 31
-0.0000000000000163
210
0.0
220
1.0
230
-0.0000000000000002
  0
LINE
  5
AC5
  8
0
  6
VERDECKT
 62
     1
 10
34.9999999999998934
 20
8.0654914143630396
 30
-0.0000000000000018
 11
34.9999999999998934
 21
73.5000000000000142
 31
-0.0000000000000163
210
0.0
220
1.0
230
-0.0000000000000002
  0
ENDBLK
  5
AC7
  8
0
  0
ENDSEC
  0
SECTION
  2
ENTITIES
  0
TEXT
  5
8F
  8
VOLL
 10
78.076754716981128
 20
31.025947764705851
 30
0.0
 40
1.8
  1

  7
GREEKS
  0
INSERT
  5
A8B
  8
DEFPOINTS
  2
A$C704F41D4
 10
0.0
 20
0.0000000000000097
 30
-0.0000000000000568
  0
INSERT
  5
AC8
  8
DEFPOINTS
  2
A$C6D681F92
 10
-0.0000000000002114
 20
97.7825323423081016
 30
-0.0000000000000568
  0
VIEWPORT
  5
8EF
 67
     1
  8
0
 10
4.5649658524801779
 20
4.0258712972582673
 30
0.0
 40
15.9385480661669998
 41
8.466032494031678
 68
     1
 69
     1
1001
ACAD
1000
MVIEW
1002
{
1070
    16
1010
0.0
1020
0.0
1030
0.0
1010
0.0
1020
0.0
1030
1.0
1040
0.0
1040
8.466032494031678
1040
4.5649658524801779
1040
4.0258712972582673
1040
50.0
1040
0.0
1040
0.0
1070
     0
1070
  1500
1070
     1
1070
     1
1070
     0
1070
     0
1070
     0
1070
     0
1040
0.0
1040
0.0
1040
0.0
1040
10.0
1040
10.0
1040
10.0
1040
10.0
1070
     0
1002
{
1002
}
1002
}
  0
ENDSEC
  0
EOF
