  0
SECTION
  2
HEADER
  9
$ACADVER
  1
AC1009
  9
$INSBASE
 10
0.0
 20
0.0
 30
0.0
  9
$EXTMIN
 10
-253.7085052575170891
 20
-31.5002737461854885
 30
-0.0110160051976891
  9
$EXTMAX
 10
53.7047949452275972
 20
418.4162757609169034
 30
0.016525688832985
  9
$LIMMIN
 10
0.0
 20
0.0
  9
$LIMMAX
 10
419.9999999999998863
 20
594.0
  9
$ORTHOMODE
 70
     1
  9
$REGENMODE
 70
     1
  9
$FILLMODE
 70
     1
  9
$QTEXTMODE
 70
     0
  9
$MIRRTEXT
 70
     1
  9
$DRAGMODE
 70
     2
  9
$LTSCALE
 40
20.0
  9
$OSMODE
 70
  1327
  9
$ATTMODE
 70
     1
  9
$TEXTSIZE
 40
3.5
  9
$TRACEWID
 40
0.5
  9
$TEXTSTYLE
  7
STANDARD
  9
$CLAYER
  8
DEFPOINTS
  9
$CELTYPE
  6
BYLAYER
  9
$CECOLOR
 62
   256
  9
$DIMSCALE
 40
2.0
  9
$DIMASZ
 40
3.5
  9
$DIMEXO
 40
1.0
  9
$DIMDLI
 40
7.0
  9
$DIMRND
 40
0.0
  9
$DIMDLE
 40
0.0
  9
$DIMEXE
 40
1.0
  9
$DIMTP
 40
0.0
  9
$DIMTM
 40
0.0
  9
$DIMTXT
 40
3.5
  9
$DIMCEN
 40
1.5
  9
$DIMTSZ
 40
0.0
  9
$DIMTOL
 70
     0
  9
$DIMLIM
 70
     0
  9
$DIMTIH
 70
     0
  9
$DIMTOH
 70
     0
  9
$DIMSE1
 70
     0
  9
$DIMSE2
 70
     0
  9
$DIMTAD
 70
     1
  9
$DIMZIN
 70
     8
  9
$DIMBLK
  1

  9
$DIMASO
 70
     1
  9
$DIMSHO
 70
     0
  9
$DIMPOST
  1

  9
$DIMAPOST
  1

  9
$DIMALT
 70
     0
  9
$DIMALTD
 70
     2
  9
$DIMALTF
 40
25.3999999999999986
  9
$DIMLFAC
 40
1.0
  9
$DIMTOFL
 70
     1
  9
$DIMTVP
 40
0.0
  9
$DIMTIX
 70
     0
  9
$DIMSOXD
 70
     0
  9
$DIMSAH
 70
     0
  9
$DIMBLK1
  1

  9
$DIMBLK2
  1

  9
$DIMSTYLE
  2
STANDARD
  9
$DIMCLRD
 70
     0
  9
$DIMCLRE
 70
     0
  9
$DIMCLRT
 70
     1
  9
$DIMTFAC
 40
0.5142857142857143
  9
$DIMGAP
 40
1.5
  9
$LUNITS
 70
     2
  9
$LUPREC
 70
     2
  9
$SKETCHINC
 40
1.0
  9
$FILLETRAD
 40
82.5
  9
$AUNITS
 70
     0
  9
$AUPREC
 70
     0
  9
$MENU
  1
ACAD
  9
$ELEVATION
 40
0.0
  9
$PELEVATION
 40
0.0
  9
$THICKNESS
 40
0.0
  9
$LIMCHECK
 70
     0
  9
$BLIPMODE
 70
     0
  9
$CHAMFERA
 40
0.0
  9
$CHAMFERB
 40
0.0
  9
$SKPOLY
 70
     0
  9
$TDCREATE
 40
2455397.8646990740671754
  9
$TDUPDATE
 40
2458382.5714467591606081
  9
$TDINDWG
 40
0.0757151273
  9
$TDUSRTIMER
 40
0.0757151273
  9
$USRTIMER
 70
     1
  9
$ANGBASE
 50
0.0
  9
$ANGDIR
 70
     0
  9
$PDMODE
 70
     0
  9
$PDSIZE
 40
0.0
  9
$PLINEWID
 40
0.0
  9
$COORDS
 70
     1
  9
$SPLFRAME
 70
     0
  9
$SPLINETYPE
 70
     6
  9
$SPLINESEGS
 70
     8
  9
$ATTDIA
 70
     0
  9
$ATTREQ
 70
     0
  9
$HANDLING
 70
     1
  9
$HANDSEED
  5
746
  9
$SURFTAB1
 70
     6
  9
$SURFTAB2
 70
     6
  9
$SURFTYPE
 70
     6
  9
$SURFU
 70
     6
  9
$SURFV
 70
     6
  9
$UCSNAME
  2

  9
$UCSORG
 10
0.0
 20
0.0
 30
0.0
  9
$UCSXDIR
 10
1.0
 20
0.0
 30
0.0
  9
$UCSYDIR
 10
0.0
 20
1.0
 30
0.0
  9
$PUCSNAME
  2

  9
$PUCSORG
 10
0.0
 20
0.0
 30
0.0
  9
$PUCSXDIR
 10
1.0
 20
0.0
 30
0.0
  9
$PUCSYDIR
 10
0.0
 20
1.0
 30
0.0
  9
$USERI1
 70
     0
  9
$USERI2
 70
     0
  9
$USERI3
 70
     0
  9
$USERI4
 70
     0
  9
$USERI5
 70
     0
  9
$USERR1
 40
0.0
  9
$USERR2
 40
0.0
  9
$USERR3
 40
0.0
  9
$USERR4
 40
0.0
  9
$USERR5
 40
0.0
  9
$WORLDVIEW
 70
     1
  9
$SHADEDGE
 70
     3
  9
$SHADEDIF
 70
    70
  9
$TILEMODE
 70
     1
  9
$MAXACTVP
 70
    16
  9
$PLIMCHECK
 70
     0
  9
$PEXTMIN
 10
-0.0749361313909454
 20
-0.0725707820454105
 30
-0.0000000000112498
  9
$PEXTMAX
 10
5.7518612206513531
 20
7.920173437209125
 30
0.0000000000002956
  9
$PLIMMIN
 10
-0.2500002402958907
 20
-0.2499999962453767
  9
$PLIMMAX
 10
10.7499995194082203
 20
8.2499997634587334
  9
$UNITMODE
 70
     0
  9
$VISRETAIN
 70
     0
  9
$PLINEGEN
 70
     0
  9
$PSLTSCALE
 70
     0
  0
ENDSEC
  0
SECTION
  2
TABLES
  0
TABLE
  2
VPORT
 70
     1
  0
VPORT
  2
*ACTIVE
 70
     0
 10
0.0
 20
0.0
 11
1.0
 21
1.0
 12
2.4981448438557541
 22
41.9580010073657093
 13
0.0
 23
0.0
 14
1.0
 24
1.0
 15
10.0
 25
10.0
 16
-0.0000000000003268
 26
0.0
 36
1487.77162413452902
 17
-102.5000000000004974
 27
151.5
 37
180.5000000000009948
 40
453.2825087303475016
 41
1.8826466916354549
 42
50.0
 43
0.0
 44
0.0
 50
0.0
 51
0.0
 71
     0
 72
  1500
 73
     1
 74
     0
 75
     0
 76
     0
 77
     0
 78
     0
  0
ENDTAB
  0
TABLE
  2
LTYPE
 70
     3
  0
LTYPE
  2
CONTINUOUS
 70
     0
  3
Solid line
 72
    65
 73
     0
 40
0.0
  0
LTYPE
  2
VERDECKT
 70
     0
  3
Verdeckt __ __ __ __ __ __ __ __ __ __ __ __ __
 72
    65
 73
     2
 40
0.375
 49
0.25
 49
-0.125
  0
ENDTAB
  0
TABLE
  2
LAYER
 70
    10
  0
LAYER
  2
0
 70
     0
 62
     7
  6
CONTINUOUS
  0
LAYER
  2
VOLL
 70
     0
 62
     1
  6
CONTINUOUS
  0
LAYER
  2
DEFPOINTS
 70
     0
 62
     7
  6
CONTINUOUS
  0
ENDTAB
  0
TABLE
  2
STYLE
 70
     4
  0
STYLE
  2
STANDARD
 70
     0
 40
0.0
 41
0.8
 50
0.0
 71
     0
 42
3.5
  3
simplex.shx
  4

  0
STYLE
  2
GREEKS
 70
     0
 40
0.0
 41
0.8
 50
0.0
 71
     0
 42
2.5
  3
SIMPLEX.shx
  4

  0
ENDTAB
  0
TABLE
  2
VIEW
 70
     2
  0
ENDTAB
  0
TABLE
  2
UCS
 70
     0
  0
ENDTAB
  0
TABLE
  2
APPID
 70
     8
  0
APPID
  2
ACAD
 70
     0
  0
APPID
  2
ACAECLAYERSTANDARD
 70
     0
  0
APPID
  2
ACCMTRANSPARENCY
 70
     0
  0
APPID
  2
ACAD_NAV_VCDISPLAY
 70
     0
  0
APPID
  2
ACAD_PSEXT
 70
     0
  0
APPID
  2
ACAD_EXEMPT_FROM_CAD_STANDARDS
 70
     0
  0
APPID
  2
ACAD_MLEADERVER
 70
     0
  0
APPID
  2
ACAD_OBJECT_CHANGE_GUID
 70
     0
  0
ENDTAB
  0
TABLE
  2
DIMSTYLE
 70
     2
  0
DIMSTYLE
  2
STANDARD
 70
     0
  3

  4

  5

  6

  7

 40
1.0
 41
0.18
 42
0.0625
 43
0.38
 44
0.18
 45
0.0
 46
0.0
 47
0.0
 48
0.0
140
0.18
141
0.09
142
0.0
143
25.3999999999999986
144
1.0
145
0.0
146
1.0
147
0.09
 71
     0
 72
     0
 73
     1
 74
     1
 75
     0
 76
     0
 77
     0
 78
     0
170
     0
171
     2
172
     0
173
     0
174
     0
175
     0
176
     0
177
     0
178
     0
  0
ENDTAB
  0
ENDSEC
  0
SECTION
  2
BLOCKS
  0
BLOCK
  8
0
  2
$MODEL_SPACE
 70
     0
 10
0.0
 20
0.0
 30
0.0
  3
$MODEL_SPACE
  1

  0
ENDBLK
  5
36
  8
0
  0
BLOCK
 67
     1
  8
0
  2
$PAPER_SPACE
 70
     0
 10
0.0
 20
0.0
 30
0.0
  3
$PAPER_SPACE
  1

  0
ENDBLK
  5
34
 67
     1
  8
0
  0
BLOCK
  8
0
  2
A$C58E9206F
 70
     0
 10
0.0
 20
0.0
 30
0.0
  3
A$C58E9206F
  1

  0
LINE
  5
69C
  8
0
  6
CONTINUOUS
 62
     3
 10
-229.6070448491921923
 20
361.0000000000022169
 30
-0.0000000000000802
 11
-170.3929551508097973
 21
361.0000000000022169
 31
-0.0000000000000802
210
0.0
220
1.0
230
-0.0000000000000002
  0
LINE
  5
69D
  8
0
  6
CONTINUOUS
 62
     3
 10
-26.0625566823705412
 20
-0.0000000000001705
 30
0.0
 11
26.0625566823705412
 21
0.0000000000001705
 31
0.0
210
0.0
220
1.0
230
-0.0000000000000002
  0
LINE
  5
69E
  8
0
  6
CONTINUOUS
 62
     3
 10
-170.3929551508097973
 20
361.0000000000022169
 30
-0.0000000000000802
 11
-170.3269981527791117
 21
360.8585547612686923
 31
-0.0000000000000801
210
0.0
220
1.0
230
-0.0000000000000002
  0
LINE
  5
69F
  8
0
  6
CONTINUOUS
 62
     3
 10
-229.6070448491921923
 20
361.0000000000022169
 30
-0.0000000000000802
 11
-229.6730018472229915
 21
360.8585547612686923
 31
-0.0000000000000801
210
0.0
220
1.0
230
-0.0000000000000002
  0
ARC
  5
6A0
  8
0
  6
CONTINUOUS
 62
     3
 10
212.0000000000069917
 20
352.6174986573420824
 30
0.0
 40
19.4999999999940314
210
0.0
220
-0.0000000000000002
230
-1.0
 50
0.0
 51
24.9999999999551683
  0
ARC
  5
6A1
  8
0
  6
CONTINUOUS
 62
     3
 10
187.9999999999944862
 20
352.6174986573420824
 30
0.0
 40
19.4999999999934595
210
0.0
220
-0.0000000000000002
230
-1.0
 50
155.0000000000462137
 51
180.0000000000021032
  0
LINE
  5
6A2
  8
0
  6
CONTINUOUS
 62
     3
 10
-168.5000000000009948
 20
352.6174986573414003
 30
-0.0000000000000783
 11
-168.5000000000009948
 21
348.2020357021152108
 31
-0.0000000000000773
210
0.0
220
1.0
230
-0.0000000000000002
  0
LINE
  5
6A3
  8
0
  6
CONTINUOUS
 62
     3
 10
-231.5000000000009948
 20
352.6174986573414003
 30
-0.0000000000000783
 11
-231.5000000000009948
 21
348.2020357021152108
 31
-0.0000000000000773
210
0.0
220
1.0
230
-0.0000000000000002
  0
ARC
  5
6A4
  8
0
  6
CONTINUOUS
 62
     3
 10
206.500000000000199
 20
348.1620000000027062
 30
0.0
 40
25.0000320571291716
210
0.0
220
-0.0000000000000002
230
-1.0
 50
340.5369005553104103
 51
0.0917549919982067
  0
ARC
  5
6A5
  8
0
  6
CONTINUOUS
 62
     3
 10
193.5000000000017906
 20
348.1620000000027062
 30
0.0
 40
25.0000320571291716
210
0.0
220
-0.0000000000000002
230
-1.0
 50
179.9082450080018134
 51
199.4630994446895897
  0
ARC
  5
6A6
  8
0
  6
CONTINUOUS
 62
     3
 10
239.4999999999967883
 20
336.500000000002899
 30
0.0
 40
9.9999999999958291
210
0.0
220
-0.0000000000000002
230
-1.0
 50
160.5369005553075112
 51
180.0000000000034959
  0
ARC
  5
6A7
  8
0
  6
CONTINUOUS
 62
     3
 10
160.5000000000052012
 20
336.500000000002899
 30
0.0
 40
9.999999999995822
210
0.0
220
-0.0000000000000002
230
-1.0
 50
0.0
 51
19.4630994446960912
  0
LINE
  5
6A8
  8
0
  6
CONTINUOUS
 62
     3
 10
-170.5000000000009948
 20
336.5000000000022169
 30
-0.0000000000000747
 11
-170.5000000000009948
 21
328.4083269131982092
 31
-0.0000000000000729
210
0.0
220
1.0
230
-0.0000000000000002
  0
LINE
  5
6A9
  8
0
  6
CONTINUOUS
 62
     3
 10
-229.5000000000009948
 20
336.5000000000022169
 30
-0.0000000000000747
 11
-229.5000000000009948
 21
328.4083269131982092
 31
-0.0000000000000729
210
0.0
220
1.0
230
-0.0000000000000002
  0
ARC
  5
6AA
  8
0
  6
CONTINUOUS
 62
     3
 10
217.4999999999990905
 20
328.4083269131988914
 30
0.0
 40
12.0000000000018598
210
0.0
220
-0.0000000000000002
230
-1.0
 50
328.2116693829494238
 51
359.9999999999969873
  0
ARC
  5
6AB
  8
0
  6
CONTINUOUS
 62
     3
 10
182.500000000002899
 20
328.4083269131988914
 30
0.0
 40
12.0000000000018492
210
0.0
220
-0.0000000000000002
230
-1.0
 50
180.000000000002899
 51
211.7883306170506046
  0
ARC
  5
6AC
  8
0
  6
CONTINUOUS
 62
     3
 10
234.5000000000003126
 20
317.872673160345812
 30
0.0
 40
7.9999999999993294
210
0.0
220
-0.0000000000000002
230
-1.0
 50
148.2116693829497081
 51
180.0000000000028137
  0
ARC
  5
6AD
  8
0
  6
CONTINUOUS
 62
     3
 10
165.5000000000017053
 20
317.872673160345812
 30
0.0
 40
7.999999999999317
210
0.0
220
-0.0000000000000002
230
-1.0
 50
359.9999999999972147
 51
31.7883306170502884
  0
LINE
  5
6AE
  8
0
  6
CONTINUOUS
 62
     3
 10
-173.5000000000009948
 20
317.8726731603454141
 30
-0.0000000000000706
 11
-173.5000000000009948
 21
285.1157080328280813
 31
-0.0000000000000633
210
0.0
220
1.0
230
-0.0000000000000002
  0
LINE
  5
6AF
  8
0
  6
CONTINUOUS
 62
     3
 10
-226.5000000000009948
 20
317.8726731603454141
 30
-0.0000000000000706
 11
-226.5000000000009948
 21
285.1157080328293887
 31
-0.0000000000000633
210
0.0
220
1.0
230
-0.0000000000000002
  0
LINE
  5
6B0
  8
0
  6
CONTINUOUS
 62
     3
 10
26.4999999999993499
 20
69.8842919671744482
 30
-0.0000000000000155
 11
26.4999999999997407
 21
5.0000000000001572
 31
-0.0000000000000011
210
0.0
220
1.0
230
-0.0000000000000002
  0
LINE
  5
6B1
  8
0
  6
CONTINUOUS
 62
     3
 10
-26.500000000000199
 20
69.8842919671754998
 30
-0.0000000000000155
 11
-26.4999999999998117
 21
4.9999999999998304
 31
-0.0000000000000011
210
0.0
220
1.0
230
-0.0000000000000002
  0
LINE
  5
6B2
  8
0
  6
CONTINUOUS
 62
     3
 10
-26.0625566823705412
 20
-0.0000000000001705
 30
0.0
 11
-26.5
 21
4.9999999999998304
 31
-0.0000000000000011
210
0.0
220
1.0
230
-0.0000000000000002
  0
LINE
  5
6B3
  8
0
  6
CONTINUOUS
 62
     3
 10
26.0625566823705803
 20
0.0000000000001554
 30
0.0
 11
26.4999999999999716
 21
5.0000000000001608
 31
-0.0000000000000011
210
0.0
220
1.0
230
-0.0000000000000002
  0
ARC
  5
6B4
  8
0
  6
CONTINUOUS
 62
     3
 10
117.5000000000003979
 20
285.1157080328289908
 30
0.0
 40
109.0000000000003979
210
0.0
220
-0.0000000000000002
230
-1.0
 50
301.591515701038702
 51
0.0000000000001527
  0
ARC
  5
6B5
  8
0
  6
CONTINUOUS
 62
     3
 10
-117.5000000000003979
 20
285.1157080328289908
 30
-0.0000000000000633
 40
56.0000000000003979
 50
180.0000000000007958
 51
238.4084842989622928
  0
LINE
  5
6B6
  8
0
  6
CONTINUOUS
 62
     3
 10
-53.1638524659192413
 20
117.5853448681186961
 30
-0.0000000000000261
 11
-174.6007157359755979
 21
192.2690157792033858
 31
-0.0000000000000427
210
0.0
220
1.0
230
-0.0000000000000002
  0
LINE
  5
6B7
  8
0
  6
CONTINUOUS
 62
     3
 10
-25.3992842640223202
 20
162.7309842207982911
 30
-0.0000000000000361
 11
-146.836147534078691
 21
237.4146551318831087
 31
-0.0000000000000527
210
0.0
220
1.0
230
-0.0000000000000002
  0
ARC
  5
6B8
  8
0
  6
CONTINUOUS
 62
     3
 10
82.4999999999975984
 20
69.8842919671766225
 30
0.0
 40
108.999999999997101
210
0.0
220
-0.0000000000000002
230
-1.0
 50
121.5915157010396968
 51
180.0000000000011084
  0
ARC
  5
6B9
  8
0
  6
CONTINUOUS
 62
     3
 10
-82.4999999999975273
 20
69.8842919671766651
 30
-0.0000000000000155
 40
55.9999999999970584
 50
359.9999999999988063
 51
58.4084842989601967
  0
ARC
  5
6BA
  8
0
  6
VERDECKT
 62
     1
 10
212.0000000000003979
 20
352.6174986573412866
 30
0.0
 40
18.0000000000005684
210
0.0
220
-0.0000000000000002
230
-1.0
 50
0.0000000000003689
 51
27.7551793916142415
  0
ARC
  5
6BB
  8
0
  6
VERDECKT
 62
     1
 10
188.0000000000015916
 20
352.6174986573412866
 30
0.0
 40
18.0000000000005791
210
0.0
220
-0.0000000000000002
230
-1.0
 50
152.244820608385794
 51
179.9999999999996021
  0
LINE
  5
6BC
  8
0
  6
VERDECKT
 62
     1
 10
-170.0000000000009948
 20
352.6174986573414003
 30
-0.0000000000000783
 11
-170.0000000000009948
 21
348.1231839459592265
 31
-0.0000000000000773
210
0.0
220
1.0
230
-0.0000000000000002
  0
LINE
  5
6BD
  8
0
  6
VERDECKT
 62
     1
 10
-230.0000000000009948
 20
352.6174986573414003
 30
-0.0000000000000783
 11
-230.0000000000009948
 21
348.1231839459592265
 31
-0.0000000000000773
210
0.0
220
1.0
230
-0.0000000000000002
  0
ARC
  5
6BE
  8
0
  6
VERDECKT
 62
     1
 10
206.5000000000146088
 20
348.1619999999999209
 30
0.0
 40
23.5000320571145913
210
0.0
220
-0.0000000000000002
230
-1.0
 50
340.5369005553062038
 51
359.9053619552622081
  0
ARC
  5
6BF
  8
0
  6
VERDECKT
 62
     1
 10
193.4999999999874092
 20
348.1619999999999209
 30
0.0
 40
23.5000320571145807
210
0.0
220
-0.0000000000000002
230
-1.0
 50
180.0946380447377919
 51
199.4630994446937962
  0
ARC
  5
6C0
  8
0
  6
VERDECKT
 62
     1
 10
239.499999999997101
 20
336.500000000002899
 30
0.0
 40
11.4999999999960991
210
0.0
220
-0.0000000000000002
230
-1.0
 50
160.5369005553064881
 51
180.0000000000036096
  0
ARC
  5
6C1
  8
0
  6
VERDECKT
 62
     1
 10
160.5000000000048885
 20
336.500000000002899
 30
0.0
 40
11.4999999999960991
210
0.0
220
-0.0000000000000002
230
-1.0
 50
359.9999999999964189
 51
19.46309944469348
  0
LINE
  5
6C2
  8
0
  6
VERDECKT
 62
     1
 10
-172.0000000000009948
 20
336.5000000000022169
 30
-0.0000000000000747
 11
-172.0000000000009948
 21
328.4083269131982092
 31
-0.0000000000000729
210
0.0
220
1.0
230
-0.0000000000000002
  0
LINE
  5
6C3
  8
0
  6
VERDECKT
 62
     1
 10
-228.0000000000009948
 20
336.5000000000022169
 30
-0.0000000000000747
 11
-228.0000000000009948
 21
328.4083269131982092
 31
-0.0000000000000729
210
0.0
220
1.0
230
-0.0000000000000002
  0
ARC
  5
6C4
  8
0
  6
VERDECKT
 62
     1
 10
217.4999999999978115
 20
328.4083269131995166
 30
0.0
 40
10.5000000000034692
210
0.0
220
-0.0000000000000002
230
-1.0
 50
328.2116693829510155
 51
359.9999999999931788
  0
ARC
  5
6C5
  8
0
  6
VERDECKT
 62
     1
 10
182.5000000000042064
 20
328.4083269131995166
 30
0.0
 40
10.5000000000034692
210
0.0
220
-0.0000000000000002
230
-1.0
 50
180.0000000000067928
 51
211.788330617049013
  0
ARC
  5
6C6
  8
0
  6
VERDECKT
 62
     1
 10
234.5000000000017906
 20
317.872673160345073
 30
0.0
 40
9.5000000000008011
210
0.0
220
-0.0000000000000002
230
-1.0
 50
148.2116693829501912
 51
179.9999999999982947
  0
ARC
  5
6C7
  8
0
  6
VERDECKT
 62
     1
 10
165.500000000000199
 20
317.872673160345073
 30
0.0
 40
9.5000000000007958
210
0.0
220
-0.0000000000000002
230
-1.0
 50
0.0000000000017175
 51
31.7883306170498017
  0
LINE
  5
6C8
  8
0
  6
VERDECKT
 62
     1
 10
-175.0000000000009948
 20
317.8726731603454141
 30
-0.0000000000000706
 11
-175.0000000000009948
 21
285.1157080328276834
 31
-0.0000000000000633
210
0.0
220
1.0
230
-0.0000000000000002
  0
LINE
  5
6C9
  8
0
  6
VERDECKT
 62
     1
 10
-225.0000000000009948
 20
317.8726731603454141
 30
-0.0000000000000706
 11
-225.0000000000009948
 21
285.1157080328288203
 31
-0.0000000000000633
210
0.0
220
1.0
230
-0.0000000000000002
  0
LINE
  5
6CA
  8
0
  6
VERDECKT
 62
     1
 10
24.999999999998991
 20
69.8842919671727714
 30
-0.0000000000000155
 11
24.99999999999919
 21
5.0654914143606078
 31
-0.0000000000000011
210
0.0
220
1.0
230
-0.0000000000000002
  0
LINE
  5
6CB
  8
0
  6
VERDECKT
 62
     1
 10
-25.0000000000000995
 20
69.8842919671749456
 30
-0.0000000000000155
 11
-24.9999999999999005
 21
5.0654914143604524
 31
-0.0000000000000011
210
0.0
220
1.0
230
-0.0000000000000002
  0
LINE
  5
6CC
  8
0
  6
VERDECKT
 62
     1
 10
-24.5568269260555816
 20
-0.0000000000001799
 30
0.0
 11
-25.0000000000001101
 21
5.0654914143604408
 31
-0.0000000000000011
210
0.0
220
1.0
230
-0.0000000000000002
  0
LINE
  5
6CD
  8
0
  6
VERDECKT
 62
     1
 10
24.5568269260551517
 20
0.0000000000000639
 30
0.0
 11
24.9999999999996412
 21
5.0654914143606007
 31
-0.0000000000000011
210
0.0
220
1.0
230
-0.0000000000000002
  0
ARC
  5
6CE
  8
0
  6
VERDECKT
 62
     1
 10
117.5000000000046043
 20
285.115708032826376
 30
0.0
 40
107.4999999999958931
210
0.0
220
-0.0000000000000002
230
-1.0
 50
301.5915157010388725
 51
0.000000000001304
  0
ARC
  5
6CF
  8
0
  6
VERDECKT
 62
     1
 10
-117.5000000000046043
 20
285.115708032826376
 30
-0.0000000000000633
 40
57.499999999996021
 50
179.9999999999986073
 51
238.4084842989601896
  0
LINE
  5
6D0
  8
0
  6
VERDECKT
 62
     1
 10
-52.3780627998310493
 20
118.8630516422528984
 30
-0.0000000000000264
 11
-173.8149260698864111
 21
193.5467225533373039
 31
-0.000000000000043
210
0.0
220
1.0
230
-0.0000000000000002
  0
LINE
  5
6D1
  8
0
  6
VERDECKT
 62
     1
 10
-26.1850739301182998
 20
161.4532774466684941
 30
-0.0000000000000358
 11
-147.6219372001735906
 21
236.1369483577528001
 31
-0.0000000000000524
210
0.0
220
1.0
230
-0.0000000000000002
  0
ARC
  5
6D2
  8
0
  6
VERDECKT
 62
     1
 10
82.5000000000005542
 20
69.884291967174903
 30
0.0
 40
107.5000000000000995
210
0.0
220
-0.0000000000000002
230
-1.0
 50
121.5915157010378067
 51
180.0000000000009948
  0
ARC
  5
6D3
  8
0
  6
VERDECKT
 62
     1
 10
-82.5000000000005542
 20
69.884291967174903
 30
-0.0000000000000155
 40
57.5000000000000782
 50
0.0000000000000382
 51
58.4084842989622572
  0
ENDBLK
  5
6D5
  8
0
  0
BLOCK
  8
0
  2
A$C42B836C5
 70
     0
 10
0.0
 20
0.0
 30
0.0
  3
A$C42B836C5
  1

  0
CIRCLE
  5
6D9
  8
0
  6
CONTINUOUS
 62
     3
 10
-200.0000000000009095
 20
0.000000000000033
 30
-0.0000000000000568
 40
27.9290197827829516
  0
CIRCLE
  5
6DA
  8
0
  6
CONTINUOUS
 62
     3
 10
-200.0000000000009948
 20
0.0000000000000304
 30
-0.0000000000000568
 40
25.0
  0
CIRCLE
  5
6DB
  8
0
  6
CONTINUOUS
 62
     3
 10
-200.0000000000009095
 20
0.000000000000033
 30
-0.0000000000000568
 40
29.6070448491912011
  0
CIRCLE
  5
6DC
  8
0
  6
CONTINUOUS
 62
     3
 10
-200.0000000000009095
 20
0.0000000000000325
 30
-0.0000000000000568
 40
31.5
  0
ARC
  5
6DD
  8
0
  6
CONTINUOUS
 62
     3
 10
-0.0000000000004394
 20
0.0000000000000152
 30
0.0
 40
26.5
 50
270.0
 51
90.0
  0
CIRCLE
  5
6DE
  8
0
  6
CONTINUOUS
 62
     3
 10
-200.0000000000009095
 20
0.0000000000000322
 30
-0.0000000000000568
 40
31.5000320571283083
  0
LINE
  5
6DF
  8
0
  6
CONTINUOUS
 62
     3
 10
-160.7184316350270024
 20
26.5000000000000284
 30
-0.0000000000000284
 11
-182.9705543366767984
 21
26.5000000000000284
 31
-0.0000000000000284
  0
LINE
  5
6E0
  8
0
  6
CONTINUOUS
 62
     3
 10
-182.9705543366767984
 20
-26.4999999999999893
 30
-0.0000000000000284
 11
-160.7184316350270024
 21
-26.4999999999999893
 31
-0.0000000000000284
  0
LINE
  5
6E1
  8
0
  6
CONTINUOUS
 62
     3
 10
-39.2815683649707523
 20
-26.4999999999999893
 30
0.0
 11
-160.7184316350270024
 21
-26.4999999999999893
 31
-0.0000000000000284
  0
LINE
  5
6E2
  8
0
  6
CONTINUOUS
 62
     3
 10
-39.2815683649707523
 20
26.5000000000000213
 30
0.0
 11
-160.7184316350270024
 21
26.5000000000000284
 31
-0.0000000000000284
  0
LINE
  5
6E3
  8
0
  6
CONTINUOUS
 62
     3
 10
-39.281568364970731
 20
-26.4999999999999893
 30
0.0
 11
-0.0000000000004405
 21
-26.4999999999999893
 31
0.0
  0
LINE
  5
6E4
  8
0
  6
CONTINUOUS
 62
     3
 10
-0.0000000000004394
 20
26.5000000000000213
 30
0.0
 11
-39.2815683649708234
 21
26.5000000000000213
 31
0.0
  0
CIRCLE
  5
6E5
  8
0
  6
VERDECKT
 62
     1
 10
-200.0000000000009095
 20
0.0000000000000325
 30
-0.0000000000000568
 40
30.0
  0
CIRCLE
  5
6E6
  8
0
  6
VERDECKT
 62
     1
 10
-200.0000000000009095
 20
0.0000000000000315
 30
-0.0000000000000568
 40
28.0
  0
CIRCLE
  5
6E7
  8
0
  6
VERDECKT
 62
     1
 10
-200.0000000000009095
 20
0.0000000000000315
 30
-0.0000000000000568
 40
29.5
  0
CIRCLE
  5
6E8
  8
0
  6
VERDECKT
 62
     1
 10
-200.0000000000009948
 20
0.0000000000000304
 30
-0.0000000000000568
 40
26.5
  0
CIRCLE
  5
6E9
  8
0
  6
VERDECKT
 62
     1
 10
-0.0000000000004394
 20
0.0000000000000152
 30
0.0
 40
25.0
  0
CIRCLE
  5
6EA
  8
0
  6
VERDECKT
 62
     1
 10
-0.0000000000002274
 20
0.0000000000000109
 30
0.0
 40
24.5568269260553613
  0
ARC
  5
6EB
  8
0
  6
VERDECKT
 62
     1
 10
-0.0000000000004394
 20
0.000000000000017
 30
0.0
 40
26.5
 50
90.0
 51
270.0
  0
CIRCLE
  5
6EC
  8
0
  6
VERDECKT
 62
     1
 10
0.0
 20
0.0000000000000109
 30
0.0
 40
26.0625566823705412
  0
LINE
  5
6ED
  8
0
  6
VERDECKT
 62
     1
 10
-160.7184316350299014
 20
25.0000000000000284
 30
-0.0000000000000284
 11
-200.0000000000005969
 21
25.0000000000000284
 31
-0.0000000000000568
  0
LINE
  5
6EE
  8
0
  6
VERDECKT
 62
     1
 10
-200.0000000000005969
 20
-24.9999999999999787
 30
-0.0000000000000568
 11
-160.7184316350299866
 21
-24.9999999999999787
 31
-0.0000000000000284
  0
LINE
  5
6EF
  8
0
  6
VERDECKT
 62
     1
 10
-39.2815683649746177
 20
-24.9999999999999893
 30
0.0
 11
-160.7184316350299014
 21
-24.9999999999999787
 31
-0.0000000000000284
  0
LINE
  5
6F0
  8
0
  6
VERDECKT
 62
     1
 10
-39.2815683649746177
 20
25.0000000000000213
 30
0.0
 11
-160.7184316350299014
 21
25.0000000000000284
 31
-0.0000000000000284
  0
LINE
  5
6F1
  8
0
  6
VERDECKT
 62
     1
 10
-39.2815683649745608
 20
-24.9999999999999787
 30
0.0
 11
-0.0000000000004405
 21
-24.9999999999999893
 31
0.0
  0
LINE
  5
6F2
  8
0
  6
VERDECKT
 62
     1
 10
-0.0000000000004252
 20
25.0000000000000213
 30
0.0
 11
-39.2815683649745679
 21
25.0000000000000213
 31
0.0
  0
LINE
  5
6F3
  8
0
  6
VERDECKT
 62
     1
 10
-182.9705543366767984
 20
26.5000000000000284
 30
-0.0000000000000284
 11
-200.0000000000007958
 21
26.5000000000000391
 31
-0.0000000000000568
  0
LINE
  5
6F4
  8
0
  6
VERDECKT
 62
     1
 10
-200.0000000000007958
 20
-26.4999999999999787
 30
-0.0000000000000568
 11
-182.9705543366767984
 21
-26.4999999999999893
 31
-0.0000000000000284
  0
ENDBLK
  5
6F6
  8
0
  0
ENDSEC
  0
SECTION
  2
ENTITIES
  0
TEXT
  5
8F
  8
VOLL
 10
78.076754716981128
 20
31.025947764705851
 30
0.0
 40
1.8
  1

  7
GREEKS
  0
INSERT
  5
6D6
  8
DEFPOINTS
  2
A$C58E9206F
 10
-0.0000000000004725
 20
57.4114358036347383
 30
-0.0000000000000853
  0
INSERT
  5
6F7
  8
DEFPOINTS
  2
A$C42B836C5
 10
0.0
 20
0.0000000000000109
 30
0.0
  0
VIEWPORT
  5
4CE
 67
     1
  8
0
 10
3.3264053425964328
 20
3.9238013275818568
 30
0.0
 40
15.1543765236011208
 41
8.0495063630003312
 68
     1
 69
     1
1001
ACAD
1000
MVIEW
1002
{
1070
    16
1010
0.0
1020
0.0
1030
0.0
1010
0.0
1020
0.0
1030
1.0
1040
0.0
1040
8.0495063630003312
1040
3.3264053425964328
1040
3.9238013275818568
1040
50.0
1040
0.0
1040
0.0
1070
     0
1070
  1500
1070
     1
1070
     1
1070
     0
1070
     0
1070
     0
1070
     0
1040
0.0
1040
0.0
1040
0.0
1040
10.0
1040
10.0
1040
10.0
1040
10.0
1070
     0
1002
{
1002
}
1002
}
  0
ENDSEC
  0
EOF
