  0
SECTION
  2
HEADER
  9
$ACADVER
  1
AC1009
  9
$INSBASE
 10
509.9391017861535147
 20
-118.0350180316795985
 30
403.1361558984037856
  9
$EXTMIN
 10
-62.0
 20
-162.0363006591796875
 30
-0.0000000000000579
  9
$EXTMAX
 10
62.0
 20
260.6519165039061932
 30
0.0
  9
$LIMMIN
 10
0.0
 20
0.000000000000008
  9
$LIMMAX
 10
594.0
 20
840.0
  9
$ORTHOMODE
 70
     1
  9
$REGENMODE
 70
     1
  9
$FILLMODE
 70
     1
  9
$QTEXTMODE
 70
     0
  9
$MIRRTEXT
 70
     1
  9
$DRAGMODE
 70
     2
  9
$LTSCALE
 40
20.0
  9
$OSMODE
 70
  3583
  9
$ATTMODE
 70
     1
  9
$TEXTSIZE
 40
2.0
  9
$TRACEWID
 40
1.0
  9
$TEXTSTYLE
  7
STANDARD
  9
$CLAYER
  8
0
  9
$CELTYPE
  6
BYLAYER
  9
$CECOLOR
 62
   256
  9
$DIMSCALE
 40
2.0
  9
$DIMASZ
 40
1.75
  9
$DIMEXO
 40
1.0
  9
$DIMDLI
 40
7.0
  9
$DIMRND
 40
0.0
  9
$DIMDLE
 40
0.0
  9
$DIMEXE
 40
1.0
  9
$DIMTP
 40
0.0
  9
$DIMTM
 40
0.0
  9
$DIMTXT
 40
1.75
  9
$DIMCEN
 40
1.5
  9
$DIMTSZ
 40
0.0
  9
$DIMTOL
 70
     0
  9
$DIMLIM
 70
     0
  9
$DIMTIH
 70
     0
  9
$DIMTOH
 70
     0
  9
$DIMSE1
 70
     0
  9
$DIMSE2
 70
     0
  9
$DIMTAD
 70
     1
  9
$DIMZIN
 70
     8
  9
$DIMBLK
  1

  9
$DIMASO
 70
     1
  9
$DIMSHO
 70
     0
  9
$DIMPOST
  1

  9
$DIMAPOST
  1

  9
$DIMALT
 70
     0
  9
$DIMALTD
 70
     2
  9
$DIMALTF
 40
25.3999999999999986
  9
$DIMLFAC
 40
2.0
  9
$DIMTOFL
 70
     1
  9
$DIMTVP
 40
0.0
  9
$DIMTIX
 70
     0
  9
$DIMSOXD
 70
     0
  9
$DIMSAH
 70
     0
  9
$DIMBLK1
  1

  9
$DIMBLK2
  1

  9
$DIMSTYLE
  2
STANDARD
  9
$DIMCLRD
 70
     0
  9
$DIMCLRE
 70
     0
  9
$DIMCLRT
 70
     1
  9
$DIMTFAC
 40
0.5142857142857143
  9
$DIMGAP
 40
0.75
  9
$LUNITS
 70
     2
  9
$LUPREC
 70
     2
  9
$SKETCHINC
 40
1.0
  9
$FILLETRAD
 40
6.5
  9
$AUNITS
 70
     0
  9
$AUPREC
 70
     0
  9
$MENU
  1
ACAD
  9
$ELEVATION
 40
0.0
  9
$PELEVATION
 40
0.0
  9
$THICKNESS
 40
0.0
  9
$LIMCHECK
 70
     0
  9
$BLIPMODE
 70
     0
  9
$CHAMFERA
 40
0.0
  9
$CHAMFERB
 40
0.0
  9
$SKPOLY
 70
     0
  9
$TDCREATE
 40
2455397.867048610933125
  9
$TDUPDATE
 40
2460803.291134259197861
  9
$TDINDWG
 40
0.8350879282
  9
$TDUSRTIMER
 40
0.8350879282
  9
$USRTIMER
 70
     1
  9
$ANGBASE
 50
0.0
  9
$ANGDIR
 70
     0
  9
$PDMODE
 70
     0
  9
$PDSIZE
 40
0.0
  9
$PLINEWID
 40
0.0
  9
$COORDS
 70
     1
  9
$SPLFRAME
 70
     0
  9
$SPLINETYPE
 70
     6
  9
$SPLINESEGS
 70
     8
  9
$ATTDIA
 70
     1
  9
$ATTREQ
 70
     1
  9
$HANDLING
 70
     1
  9
$HANDSEED
  5
95C2
  9
$SURFTAB1
 70
     6
  9
$SURFTAB2
 70
     6
  9
$SURFTYPE
 70
     6
  9
$SURFU
 70
     6
  9
$SURFV
 70
     6
  9
$UCSNAME
  2

  9
$UCSORG
 10
0.0
 20
0.0
 30
0.0
  9
$UCSXDIR
 10
1.0
 20
0.0
 30
0.0
  9
$UCSYDIR
 10
0.0
 20
1.0
 30
0.0
  9
$PUCSNAME
  2

  9
$PUCSORG
 10
0.0
 20
0.0
 30
0.0
  9
$PUCSXDIR
 10
1.0
 20
0.0
 30
0.0
  9
$PUCSYDIR
 10
0.0
 20
1.0
 30
0.0
  9
$USERI1
 70
     0
  9
$USERI2
 70
     0
  9
$USERI3
 70
     0
  9
$USERI4
 70
     0
  9
$USERI5
 70
     0
  9
$USERR1
 40
0.0
  9
$USERR2
 40
0.0
  9
$USERR3
 40
0.0
  9
$USERR4
 40
0.0
  9
$USERR5
 40
0.0
  9
$WORLDVIEW
 70
     1
  9
$SHADEDGE
 70
     3
  9
$SHADEDIF
 70
    70
  9
$TILEMODE
 70
     1
  9
$MAXACTVP
 70
    16
  9
$PLIMCHECK
 70
     0
  9
$PEXTMIN
 10
1.0000000000000000E+20
 20
1.0000000000000000E+20
 30
1.0000000000000000E+20
  9
$PEXTMAX
 10
-1.0000000000000000E+20
 20
-1.0000000000000000E+20
 30
-1.0000000000000000E+20
  9
$PLIMMIN
 10
-0.2049179077148437
 20
-0.2552490234375
  9
$PLIMMAX
 10
209.7950820922850994
 20
296.7447509765625
  9
$UNITMODE
 70
     0
  9
$VISRETAIN
 70
     0
  9
$PLINEGEN
 70
     0
  9
$PSLTSCALE
 70
     0
  0
ENDSEC
  0
SECTION
  2
TABLES
  0
TABLE
  2
VPORT
 70
     1
  0
VPORT
  2
*ACTIVE
 70
     0
 10
0.0
 20
0.0
 11
1.0
 21
1.0
 12
-45.7316303389743624
 22
48.4807226899182027
 13
0.0
 23
0.0
 14
1.0
 24
1.0
 15
10.0
 25
10.0
 16
-0.0000000000005826
 26
0.0
 36
1319.4119012468929668
 17
45.7316303389742771
 27
0.8270852324450956
 37
130.4499969482421875
 40
424.8821006431710998
 41
1.9004329004328999
 42
49.99999999999946
 43
0.0
 44
0.0
 50
0.0
 51
0.0
 71
     0
 72
  1500
 73
     1
 74
     0
 75
     0
 76
     0
 77
     0
 78
     0
  0
ENDTAB
  0
TABLE
  2
LTYPE
 70
    13
  0
LTYPE
  2
CONTINUOUS
 70
     0
  3
Solid line
 72
    65
 73
     0
 40
0.0
  0
LTYPE
  2
STRICHPUNKT
 70
     0
  3
__ . __ . __ . __ . __ . __ . __ . __ . __ . __
 72
    65
 73
     4
 40
1.0
 49
0.5
 49
-0.25
 49
0.0
 49
-0.25
  0
LTYPE
  2
HIDDEN
 70
     0
  3
Hidden __ __ __ __ __ __ __ __ __ __ __ __ __ __
 72
    65
 73
     2
 40
0.375
 49
0.25
 49
-0.125
  0
LTYPE
  2
PHANTOM2
 70
     0
  3
Phantom (.5x) ___ _ _ ___ _ _ ___ _ _ ___ _ _
 72
    65
 73
     6
 40
1.25
 49
0.625
 49
-0.125
 49
0.125
 49
-0.125
 49
0.125
 49
-0.125
  0
LTYPE
  2
CENTER
 70
     0
  3
Center ____ _ ____ _ ____ _ ____ _ ____ _ ____
 72
    65
 73
     4
 40
2.0
 49
1.25
 49
-0.25
 49
0.25
 49
-0.25
  0
LTYPE
  2
AMCONSTR
 70
     0
  3
_______________________
 72
    65
 73
     2
 40
9999.0
 49
9999.0
 49
0.0
  0
LTYPE
  2
CENTER2
 70
     0
  3
Center (.5x) ___ _ ___ _ ___ _ ___ _ ___ _ ___
 72
    65
 73
     4
 40
1.125
 49
0.75
 49
-0.125
 49
0.125
 49
-0.125
  0
LTYPE
  2
HIDDEN2
 70
     0
  3
Hidden (.5x) _ _ _ _ _ _ _ _ _ _ _ _ _ _ _ _ _
 72
    65
 73
     2
 40
0.1875
 49
0.125
 49
-0.0625
  0
LTYPE
  2
AMZIGZAG2
 70
     0
  3
/\/-/\/-/\/-/\/-/\/-/\/
 72
    65
 73
     2
 40
0.4401
 49
0.0001
 49
-0.4400000000000001
  0
LTYPE
  2
ACANSTGB
 70
     0
  3
__ . . __ . .
 72
    65
 73
     6
 40
0.35433070866
 49
0.15748031496
 49
-0.03937007874
 49
0.03937007874
 49
-0.03937007874
 49
0.03937007874
 49
-0.03937007874
  0
LTYPE
  2
ACANSTGL
 70
     0
  3
_ _ _ _ _
 72
    65
 73
     2
 40
0.11811023622
 49
0.07874015748
 49
-0.03937007874
  0
LTYPE
  2
AUSGEZOGEN
 70
     0
  3
Ausgezogene Linie
 72
    65
 73
     0
 40
0.0
  0
LTYPE
  2
VERDECKT
 70
     0
  3
Verdeckt __ __ __ __ __ __ __ __ __ __ __ __ __
 72
    65
 73
     2
 40
0.375
 49
0.25
 49
-0.125
  0
ENDTAB
  0
TABLE
  2
LAYER
 70
     6
  0
LAYER
  2
0
 70
     0
 62
     7
  6
CONTINUOUS
  0
LAYER
  2
VOLL
 70
     0
 62
     1
  6
CONTINUOUS
  0
LAYER
  2
DEFPOINTS
 70
     0
 62
   255
  6
CONTINUOUS
  0
LAYER
  2
ADSK_ASSOC_ENTITY_BACKUPS
 70
     1
 62
    -7
  6
CONTINUOUS
  0
LAYER
  2
KUNSTSTOFF
 70
     0
 62
     2
  6
CONTINUOUS
  0
LAYER
  2
00911X10
 70
     0
 62
     7
  6
CONTINUOUS
  0
ENDTAB
  0
TABLE
  2
STYLE
 70
     5
  0
STYLE
  2
STANDARD
 70
     0
 40
0.0
 41
0.8
 50
0.0
 71
     0
 42
2.0
  3
simplex.shx
  4

  0
STYLE
  2
GREEKS
 70
     0
 40
0.0
 41
0.8
 50
0.0
 71
     0
 42
2.5
  3
SIMPLEX.shx
  4

  0
STYLE
  2

 70
     1
 40
0.0
 41
1.0
 50
0.0
 71
     0
 42
2.5
  3
genltshp.shx
  4

  0
STYLE
  2
ACANSGDT
 70
     0
 40
0.0
 41
1.0
 50
0.0
 71
     0
 42
2.5
  3
amgdt.shx
  4

  0
STYLE
  2

 70
     1
 40
0.0
 41
1.0
 50
0.0
 71
     0
 42
2.0
  3
ltypeshp.shx
  4

  0
ENDTAB
  0
TABLE
  2
VIEW
 70
     0
  0
ENDTAB
  0
TABLE
  2
UCS
 70
     0
  0
ENDTAB
  0
TABLE
  2
APPID
 70
    48
  0
APPID
  2
ACAD
 70
     0
  0
APPID
  2
ACAD_NAV_VCDISPLAY
 70
     0
  0
APPID
  2
GRADIENTCOLOR1ACI
 70
     0
  0
APPID
  2
GRADIENTCOLOR2ACI
 70
     0
  0
APPID
  2
ACAD_DSTYLE_DIMRADIAL_EXTENSION
 70
     0
  0
APPID
  2
ACADANNOMONITORALERTICONDI
 70
     0
  0
APPID
  2
ACAD_EXEMPT_FROM_CAD_STANDARDS
 70
     0
  0
APPID
  2
ACAD_MLEADERVER
 70
     0
  0
APPID
  2
ACAD_PSEXT
 70
     0
  0
APPID
  2
ACAECLAYERSTANDARD
 70
     0
  0
APPID
  2
ACCMTRANSPARENCY
 70
     0
  0
APPID
  2
ACAD_OBJECT_CHANGE_GUID
 70
     0
  0
APPID
  2
MCAD_NO_VIS
 70
     0
  0
APPID
  2
ACAD_TEMP_GRAPHIC
 70
     0
  0
APPID
  2
ACATTRIBSERVICES
 70
     0
  0
APPID
  2
DESIGNERASSEMBLIES
 70
     0
  0
APPID
  2
ACAD_DSTYLE_DIMJAG
 70
     0
  0
APPID
  2
ACAD_DSTYLE_DIMBREAK
 70
     0
  0
APPID
  2
GENIUS_GENSCREG_15
 70
     0
  0
APPID
  2
GENIUS_GENOBJ-N-SDF_13
 70
     0
  0
APPID
  2
GENIUS_GENODEF_13
 70
     0
  0
APPID
  2
ACAD_STEPID
 70
     0
  0
APPID
  2
ACAD_DSTYLE_DIMARC_LENGTH_
 70
     0
  0
APPID
  2
ACAD_DSTYLE_DIM_LINETYPE
 70
     0
  0
APPID
  2
ACAD_DSTYLE_DIM_EXT1_LINETYPE
 70
     0
  0
APPID
  2
ACAD_DSTYLE_DIM_EXT2_LINETYPE
 70
     0
  0
APPID
  2
RAK
 70
     0
  0
APPID
  2
ACADANNOPO
 70
     0
  0
APPID
  2
ACSYNERGY
 70
     0
  0
APPID
  2
SYNERGY_BODY_TBR_ID
 70
     0
  0
APPID
  2
ACAD_VIEW_EDGE_ID
 70
     0
  0
APPID
  2
ACSYNERGYSKETCH
 70
     0
  0
APPID
  2
ACAD_MODELDOC_XFORM
 70
     0
  0
APPID
  2
GENIUS_GENDTOL_13
 70
     0
  0
APPID
  2
ACAD_DSTYLE_DIMINSPECT
 70
     0
  0
APPID
  2
ACAD_DSTYLE_DIMANGULAR_EXT
 70
     0
  0
APPID
  2
PLOTTRANSPARENCY
 70
     0
  0
APPID
  2
ACAUTHENVIRON
 70
     0
  0
APPID
  2
ACDBDYNAMICBLOCKTRUENAME
 70
     0
  0
APPID
  2
ACDBDYNAMICBLOCKGUID
 70
     0
  0
APPID
  2
PE_URL
 70
     0
  0
APPID
  2
ACADANNOAV
 70
     0
  0
APPID
  2
ACAD_DSTYLE_DIMTALN
 70
     0
  0
APPID
  2
ACAD_DIMASSOC_CALC_DIMLFAC
 70
     0
  0
APPID
  2
ACAD_DIMASSOC_DIMLFAC
 70
     0
  0
APPID
  2
ACAD_DIMASSOC_OVERRIDDEN_D
 70
     0
  0
APPID
  2
ACADANNOTATIVE
 70
     0
  0
APPID
  2
DCO15
 70
     0
  0
ENDTAB
  0
TABLE
  2
DIMSTYLE
 70
     8
  0
DIMSTYLE
  2
STANDARD
 70
     0
  3

  4

  5

  6

  7

 40
1.0
 41
0.18
 42
0.0625
 43
0.38
 44
0.18
 45
0.0
 46
0.0
 47
0.0
 48
0.0
140
0.18
141
0.09
142
0.0
143
25.3999999999999986
144
1.0
145
0.0
146
1.0
147
0.09
 71
     0
 72
     0
 73
     1
 74
     1
 75
     0
 76
     0
 77
     0
 78
     0
170
     0
171
     2
172
     0
173
     0
174
     0
175
     0
176
     0
177
     0
178
     0
  0
DIMSTYLE
  2
AM_ANSI
 70
     0
  3

  4
mm
  5

  6

  7

 40
1.0
 41
0.12
 42
0.05
 43
0.5
 44
0.1
 45
0.0
 46
0.0
 47
0.1
 48
0.1
140
0.12
141
0.0
142
0.0
143
25.3999999999999986
144
1.0
145
0.0
146
0.71
147
0.06
 71
     0
 72
     0
 73
     1
 74
     1
 75
     0
 76
     0
 77
     0
 78
     7
170
     0
171
     2
172
     0
173
     0
174
     0
175
     0
176
   256
177
   256
178
   255
  0
DIMSTYLE
  2
AM_ANSI$3
 70
     0
  3

  4
mm
  5

  6

  7

 40
1.0
 41
0.12
 42
0.05
 43
0.5
 44
0.1
 45
0.0
 46
0.0
 47
0.1
 48
0.1
140
0.12
141
0.0
142
0.0
143
25.3999999999999986
144
1.0
145
0.0
146
0.71
147
0.06
 71
     0
 72
     0
 73
     1
 74
     1
 75
     0
 76
     0
 77
     0
 78
     7
170
     0
171
     2
172
     0
173
     0
174
     0
175
     0
176
   256
177
   256
178
   255
  0
DIMSTYLE
  2
AM_ANSI$4
 70
     0
  3

  4
mm
  5

  6

  7

 40
1.0
 41
0.12
 42
0.05
 43
0.5
 44
0.1
 45
0.0
 46
0.0
 47
0.1
 48
0.1
140
0.12
141
0.0
142
0.0
143
25.3999999999999986
144
1.0
145
0.0
146
0.71
147
0.06
 71
     0
 72
     0
 73
     1
 74
     1
 75
     0
 76
     0
 77
     0
 78
     7
170
     0
171
     2
172
     0
173
     0
174
     0
175
     0
176
   256
177
   256
178
   255
  0
DIMSTYLE
  2
AM_ANSI$7
 70
     0
  3

  4
mm
  5

  6

  7

 40
1.0
 41
0.12
 42
0.05
 43
0.5
 44
0.1
 45
0.0
 46
0.0
 47
0.1
 48
0.1
140
0.12
141
0.0
142
0.0
143
25.3999999999999986
144
1.0
145
0.0
146
0.71
147
0.06
 71
     0
 72
     0
 73
     1
 74
     1
 75
     0
 76
     0
 77
     0
 78
     7
170
     0
171
     2
172
     0
173
     0
174
     0
175
     0
176
   256
177
   256
178
   255
  0
DIMSTYLE
  2
AM_ANSI$SF
 70
     0
  3

  4
mm
  5

  6

  7

 40
1.0
 41
0.12
 42
0.05
 43
0.5
 44
0.1
 45
0.0
 46
0.0
 47
0.1
 48
0.1
140
0.12
141
0.0
142
0.0
143
25.3999999999999986
144
1.0
145
0.0
146
0.71
147
0.06
 71
     0
 72
     0
 73
     1
 74
     1
 75
     1
 76
     1
 77
     0
 78
     7
170
     0
171
     2
172
     0
173
     0
174
     0
175
     0
176
   256
177
   256
178
   255
  0
DIMSTYLE
  2
AM_ANSI$SH
 70
     0
  3

  4
mm
  5

  6
GENAXEH
  7

 40
1.0
 41
0.12
 42
0.05
 43
0.5
 44
0.1
 45
0.0
 46
0.0
 47
0.1
 48
0.1
140
0.12
141
0.0
142
0.0
143
25.3999999999999986
144
1.0
145
0.0
146
0.71
147
0.06
 71
     0
 72
     0
 73
     1
 74
     1
 75
     1
 76
     1
 77
     0
 78
     7
170
     0
171
     2
172
     0
173
     1
174
     0
175
     0
176
   256
177
   256
178
   255
  0
DIMSTYLE
  2
AM_ANSI$0
 70
     0
  3

  4
"
  5

  6

  7

 40
1.0
 41
3.5
 42
1.0
 43
10.0
 44
1.0
 45
0.0
 46
0.0
 47
0.1
 48
0.1
140
3.5
141
0.0
142
0.0
143
0.0393701
144
1.0
145
0.0
146
0.71
147
1.5
 71
     0
 72
     0
 73
     1
 74
     1
 75
     0
 76
     0
 77
     0
 78
     8
170
     0
171
     2
172
     0
173
     0
174
     0
175
     0
176
   256
177
   256
178
     2
  0
ENDTAB
  0
ENDSEC
  0
SECTION
  2
BLOCKS
  0
BLOCK
  8
0
  2
$MODEL_SPACE
 70
     0
 10
0.0
 20
0.0
 30
0.0
  3
$MODEL_SPACE
  1

  0
ENDBLK
  5
38
  8
0
  0
BLOCK
 67
     1
  8
0
  2
$PAPER_SPACE
 70
     2
 10
0.0
 20
0.0
 30
0.0
  3
$PAPER_SPACE
  1

  0
ENDBLK
  5
36
 67
     1
  8
0
  0
BLOCK
  8
0
  2
GENAXEH
 70
     0
 10
0.0
 20
0.0
 30
0.0
  3
GENAXEH
  1

  0
LINE
  5
1721
  8
0
 10
-1.0
 20
0.0
 30
0.0
 11
1.0
 21
0.0
 31
0.0
  0
ENDBLK
  5
1723
  8
0
  0
BLOCK
  8
0
  2
_ACMFILLEDHALF
 70
     0
 10
0.0
 20
0.0
 30
0.0
  3
_ACMFILLEDHALF
  1

  0
TRACE
  5
1731
  8
DEFPOINTS
 62
     0
 10
-0.8
 20
0.0
 30
0.0
 11
-1.0
 21
0.166666666
 31
0.0
 12
0.0
 22
0.0
 32
0.0
 13
0.0
 23
0.0
 33
0.0
  0
LINE
  5
1732
  8
DEFPOINTS
 62
     0
 10
-1.0
 20
0.0
 30
0.0
 11
-0.8
 21
0.0
 31
0.0
  0
ENDBLK
  5
1730
  8
0
  0
BLOCK
  8
0
  2
*S2
 70
     1
 10
0.0
 20
0.0
 30
0.0
  3
*S2
  1

  0
ENDBLK
  5
2101
  8
0
  0
BLOCK
  8
0
  2
*U3
 70
     1
 10
0.0
 20
0.0
 30
0.0
  3
*U3
  1

  0
ENDBLK
  5
3EBB
  8
0
  0
BLOCK
  8
0
  2
A$C040B220E
 70
     0
 10
0.0
 20
0.0
 30
0.0
  3
A$C040B220E
  1

  0
LINE
  5
94BD
  8
0
  6
CONTINUOUS
 62
     3
 10
-49.9999999999999929
 20
0.0
 30
0.0
 11
50.0
 21
0.0
 31
0.0
210
0.0
220
1.0
230
-0.0000000000000002
  0
LINE
  5
94BE
  8
0
  6
CONTINUOUS
 62
     3
 10
51.0000000000000071
 20
8.0000000000000018
 30
-0.0000000000000018
 11
-51.0000000000000071
 21
8.0000000000000018
 31
-0.0000000000000018
210
0.0
220
1.0
230
-0.0000000000000002
  0
LINE
  5
94BF
  8
0
  6
CONTINUOUS
 62
     3
 10
58.5925913220252568
 20
125.0
 30
-0.0000000000000278
 11
-58.5925913220252426
 21
125.0
 31
-0.0000000000000278
210
0.0
220
1.0
230
-0.0000000000000002
  0
LINE
  5
94C0
  8
0
  6
CONTINUOUS
 62
     3
 10
-50.0
 20
-0.0000000000000018
 30
0.0
 11
-51.0000000000000071
 21
8.0000000000000018
 31
-0.0000000000000018
210
0.0
220
1.0
230
-0.0000000000000002
  0
LINE
  5
94C1
  8
0
  6
CONTINUOUS
 62
     3
 10
50.0
 20
-0.0000000000000018
 30
0.0
 11
51.0000000000000071
 21
8.0000000000000018
 31
-0.0000000000000018
210
0.0
220
1.0
230
-0.0000000000000002
  0
ARC
  5
94C2
  8
0
  6
CONTINUOUS
 62
     3
 10
-37.0000000000000924
 20
112.4000000000000057
 30
0.0
 40
24.9999999999999005
210
0.0
220
-0.0000000000000002
230
-1.0
 50
149.7350073890017939
 51
180.0
  0
ARC
  5
94C3
  8
0
  6
CONTINUOUS
 62
     3
 10
37.0000000000000924
 20
112.4000000000000057
 30
0.0
 40
24.9999999999998899
210
0.0
220
-0.0000000000000002
230
-1.0
 50
360.0
 51
30.2649926109981386
  0
LINE
  5
94C4
  8
0
  6
CONTINUOUS
 62
     3
 10
-51.0
 20
8.0000000000000018
 30
-0.0000000000000018
 11
-51.0
 21
69.0179936244885539
 31
-0.0000000000000153
210
0.0
220
1.0
230
-0.0000000000000002
  0
LINE
  5
94C5
  8
0
  6
CONTINUOUS
 62
     3
 10
51.0
 20
8.0000000000000018
 30
-0.0000000000000018
 11
51.0
 21
69.0179936244885539
 31
-0.0000000000000153
210
0.0
220
1.0
230
-0.0000000000000002
  0
ARC
  5
94C6
  8
0
  6
CONTINUOUS
 62
     3
 10
-64.832819833403704
 20
69.0179936244885681
 30
0.0
 40
13.8328198334037005
210
0.0
220
-0.0000000000000002
230
-1.0
 50
0.0
 51
32.7887115741222175
  0
ARC
  5
94C7
  8
0
  6
CONTINUOUS
 62
     3
 10
64.8328198334037751
 20
69.0179936244885539
 30
0.0
 40
13.8328198334037804
210
0.0
220
-0.0000000000000002
230
-1.0
 50
147.2112884258777967
 51
180.0
  0
LINE
  5
94C8
  8
0
  6
CONTINUOUS
 62
     3
 10
-53.2039373332351317
 20
76.5090547202666329
 30
-0.000000000000017
 11
-58.189587037295702
 21
84.2486170939065033
 31
-0.0000000000000187
210
0.0
220
1.0
230
-0.0000000000000002
  0
LINE
  5
94C9
  8
0
  6
CONTINUOUS
 62
     3
 10
53.2039373332351317
 20
76.5090547202666329
 30
-0.000000000000017
 11
58.189587037295702
 21
84.2486170939065033
 31
-0.0000000000000187
210
0.0
220
1.0
230
-0.0000000000000002
  0
ARC
  5
94CA
  8
0
  6
CONTINUOUS
 62
     3
 10
-38.0842764405716281
 20
97.2000000000000455
 30
0.0
 40
23.9157235594283684
210
0.0
220
-0.0000000000000002
230
-1.0
 50
180.0
 51
212.7887115741220043
  0
ARC
  5
94CB
  8
0
  6
CONTINUOUS
 62
     3
 10
38.0842764405718128
 20
97.1999999999999744
 30
0.0
 40
23.9157235594282014
210
0.0
220
-0.0000000000000002
230
-1.0
 50
327.2112884258777967
 51
0.00000000000007
  0
LINE
  5
94CC
  8
0
  6
CONTINUOUS
 62
     3
 10
-61.9999999999999929
 20
97.2000000000000171
 30
-0.0000000000000216
 11
-61.9999999999999929
 21
112.4000000000000057
 31
-0.000000000000025
210
0.0
220
1.0
230
-0.0000000000000002
  0
LINE
  5
94CD
  8
0
  6
CONTINUOUS
 62
     3
 10
61.9999999999999929
 20
97.2000000000000171
 30
-0.0000000000000216
 11
61.9999999999999929
 21
112.4000000000000057
 31
-0.000000000000025
210
0.0
220
1.0
230
-0.0000000000000002
  0
LINE
  5
94CE
  8
0
  6
CONTINUOUS
 62
     3
 10
-59.7499999999999929
 20
180.399999999999892
 30
-0.0000000000000401
 11
59.7499999999999929
 21
180.399999999999892
 31
-0.0000000000000401
210
0.0
220
1.0
230
-0.0000000000000002
  0
LINE
  5
94CF
  8
0
  6
CONTINUOUS
 62
     3
 10
-57.5043306663375517
 20
172.1456693336623971
 30
-0.0000000000000382
 11
57.5043306663375233
 21
172.1456693336623971
 31
-0.0000000000000382
210
0.0
220
1.0
230
-0.0000000000000002
  0
LINE
  5
94D0
  8
0
  6
CONTINUOUS
 62
     3
 10
-59.7499999999999929
 20
169.9000000000000057
 30
-0.0000000000000377
 11
59.7499999999999929
 21
169.9000000000000057
 31
-0.0000000000000377
210
0.0
220
1.0
230
-0.0000000000000002
  0
LINE
  5
94D1
  8
0
  6
CONTINUOUS
 62
     3
 10
-59.7499999999999929
 20
168.9000000000000057
 30
-0.0000000000000375
 11
59.7499999999999929
 21
168.9000000000000057
 31
-0.0000000000000375
210
0.0
220
1.0
230
-0.0000000000000002
  0
LINE
  5
94D2
  8
0
  6
CONTINUOUS
 62
     3
 10
-57.7500000000000284
 20
166.9000000000000057
 30
-0.0000000000000371
 11
57.75
 21
166.9000000000000057
 31
-0.0000000000000371
210
0.0
220
1.0
230
-0.0000000000000002
  0
LINE
  5
94D3
  8
0
  6
CONTINUOUS
 62
     3
 10
-57.7500000000000284
 20
166.2971143170300081
 30
-0.0000000000000369
 11
57.75
 21
166.2971143170300081
 31
-0.0000000000000369
210
0.0
220
1.0
230
-0.0000000000000002
  0
LINE
  5
94D4
  8
0
  6
CONTINUOUS
 62
     3
 10
-60.0
 20
162.4000000000000057
 30
-0.0000000000000361
 11
60.0
 21
162.4000000000000057
 31
-0.0000000000000361
210
0.0
220
1.0
230
-0.0000000000000002
  0
LINE
  5
94D5
  8
0
  6
CONTINUOUS
 62
     3
 10
-49.5000000000000213
 20
160.4000000000000057
 30
-0.0000000000000356
 11
49.5
 21
160.4000000000000057
 31
-0.0000000000000356
210
0.0
220
1.0
230
-0.0000000000000002
  0
ARC
  5
94D6
  8
0
  6
CONTINUOUS
 62
     3
 10
55.6425184053936519
 20
179.5999999999999091
 30
0.0
 40
0.8000000000000113
210
0.0
220
-0.0000000000000002
230
-1.0
 50
89.9999999999984936
 51
199.9999999999998863
  0
ARC
  5
94D7
  8
0
  6
CONTINUOUS
 62
     3
 10
-55.6425184053936377
 20
179.5999999999999091
 30
0.0
 40
0.8000000000000088
210
0.0
220
-0.0000000000000002
230
-1.0
 50
340.0000000000018758
 51
90.0000000000020464
  0
LINE
  5
94D8
  8
0
  6
CONTINUOUS
 62
     3
 10
54.8907643087649078
 20
179.3263838853393963
 30
-0.0000000000000398
 11
57.5043306663375233
 21
172.1456693336623971
 31
-0.0000000000000382
210
0.0
220
1.0
230
-0.0000000000000002
  0
LINE
  5
94D9
  8
0
  6
CONTINUOUS
 62
     3
 10
-54.8907643087649078
 20
179.3263838853393963
 30
-0.0000000000000398
 11
-57.5043306663375233
 21
172.1456693336623971
 31
-0.0000000000000382
210
0.0
220
1.0
230
-0.0000000000000002
  0
LINE
  5
94DA
  8
0
  6
CONTINUOUS
 62
     3
 10
57.5043306663375375
 20
172.1456693336623971
 30
-0.0000000000000382
 11
59.7500000000000071
 21
169.9000000000000057
 31
-0.0000000000000377
210
0.0
220
1.0
230
-0.0000000000000002
  0
LINE
  5
94DB
  8
0
  6
CONTINUOUS
 62
     3
 10
-57.5043306663375304
 20
172.1456693336623971
 30
-0.0000000000000382
 11
-59.7500000000000071
 21
169.9000000000000057
 31
-0.0000000000000377
210
0.0
220
1.0
230
-0.0000000000000002
  0
LINE
  5
94DC
  8
0
  6
CONTINUOUS
 62
     3
 10
59.75
 20
169.9000000000000057
 30
-0.0000000000000377
 11
59.75
 21
168.9000000000000057
 31
-0.0000000000000375
210
0.0
220
1.0
230
-0.0000000000000002
  0
LINE
  5
94DD
  8
0
  6
CONTINUOUS
 62
     3
 10
-59.75
 20
169.9000000000000057
 30
-0.0000000000000377
 11
-59.75
 21
168.9000000000000057
 31
-0.0000000000000375
210
0.0
220
1.0
230
-0.0000000000000002
  0
LINE
  5
94DE
  8
0
  6
CONTINUOUS
 62
     3
 10
-57.75
 20
166.9000000000000057
 30
-0.0000000000000371
 11
-59.75
 21
168.9000000000000057
 31
-0.0000000000000375
210
0.0
220
1.0
230
-0.0000000000000002
  0
LINE
  5
94DF
  8
0
  6
CONTINUOUS
 62
     3
 10
57.75
 20
166.9000000000000057
 30
-0.0000000000000371
 11
59.75
 21
168.9000000000000057
 31
-0.0000000000000375
210
0.0
220
1.0
230
-0.0000000000000002
  0
LINE
  5
94E0
  8
0
  6
CONTINUOUS
 62
     3
 10
57.75
 20
166.9000000000000057
 30
-0.0000000000000371
 11
57.75
 21
166.2971143170298944
 31
-0.0000000000000369
210
0.0
220
1.0
230
-0.0000000000000002
  0
LINE
  5
94E1
  8
0
  6
CONTINUOUS
 62
     3
 10
-57.75
 20
166.9000000000000057
 30
-0.0000000000000371
 11
-57.75
 21
166.2971143170300081
 31
-0.0000000000000369
210
0.0
220
1.0
230
-0.0000000000000002
  0
LINE
  5
94E2
  8
0
  6
CONTINUOUS
 62
     3
 10
57.7500000000000071
 20
166.2971143170298944
 30
-0.0000000000000369
 11
60.0
 21
162.4000000000000057
 31
-0.0000000000000361
210
0.0
220
1.0
230
-0.0000000000000002
  0
LINE
  5
94E3
  8
0
  6
CONTINUOUS
 62
     3
 10
-57.7499999999999929
 20
166.2971143170300081
 30
-0.0000000000000369
 11
-60.0
 21
162.4000000000000057
 31
-0.0000000000000361
210
0.0
220
1.0
230
-0.0000000000000002
  0
ARC
  5
94E4
  8
0
  6
CONTINUOUS
 62
     3
 10
49.5
 20
165.4000000000000057
 30
0.0
 40
5.0000000000000284
210
0.0
220
-0.0000000000000002
230
-1.0
 50
270.0
 51
323.130102354156179
  0
ARC
  5
94E5
  8
0
  6
CONTINUOUS
 62
     3
 10
-49.5
 20
165.4000000000000057
 30
0.0
 40
5.0000000000000284
210
0.0
220
-0.0000000000000002
230
-1.0
 50
216.8698976458437073
 51
270.0
  0
ARC
  5
94E6
  8
0
  6
CONTINUOUS
 62
     3
 10
55.3122754750413534
 20
185.899999999999892
 30
0.0
 40
1.5000000000000291
210
0.0
220
-0.0000000000000002
230
-1.0
 50
31.8542940793540694
 51
89.9999999999992042
  0
ARC
  5
94E7
  8
0
  6
CONTINUOUS
 62
     3
 10
-55.3122754750413534
 20
185.899999999999892
 30
0.0
 40
1.500000000000028
210
0.0
220
-0.0000000000000002
230
-1.0
 50
90.00000000000081
 51
148.145705920645895
  0
LINE
  5
94E8
  8
0
  6
CONTINUOUS
 62
     3
 10
55.312275475041389
 20
187.4000000000000057
 30
-0.0000000000000416
 11
-55.3122754750413677
 21
187.4000000000000057
 31
-0.0000000000000416
210
0.0
220
1.0
230
-0.0000000000000002
  0
LINE
  5
94E9
  8
0
  6
CONTINUOUS
 62
     3
 10
56.5863649190260176
 20
186.6916413889678097
 30
-0.0000000000000415
 11
59.1475718506257593
 21
182.5695644474546953
 31
-0.0000000000000405
210
0.0
220
1.0
230
-0.0000000000000002
  0
LINE
  5
94EA
  8
0
  6
CONTINUOUS
 62
     3
 10
-56.5863649190260176
 20
186.6916413889678097
 30
-0.0000000000000415
 11
-59.1475718506257593
 21
182.5695644474546953
 31
-0.0000000000000405
210
0.0
220
1.0
230
-0.0000000000000002
  0
ARC
  5
94EB
  8
0
  6
CONTINUOUS
 62
     3
 10
55.7423973750447175
 20
180.4556204498886132
 30
0.0
 40
4.0079885770788106
210
0.0
220
-0.0000000000000002
230
-1.0
 50
359.2048581805643721
 51
31.8321522365556895
  0
ARC
  5
94EC
  8
0
  6
CONTINUOUS
 62
     3
 10
-55.7423973750447175
 20
180.4556204498886132
 30
0.0
 40
4.0079885770788124
210
0.0
220
-0.0000000000000002
230
-1.0
 50
148.1678477634443141
 51
180.7951418194355142
  0
LINE
  5
94ED
  8
0
  6
CONTINUOUS
 62
     3
 10
59.5
 20
258.8999999999999773
 30
-0.0000000000000575
 11
-59.5
 21
258.8999999999999773
 31
-0.0000000000000575
210
0.0
220
1.0
230
-0.0000000000000002
  0
LINE
  5
94EE
  8
0
  6
CONTINUOUS
 62
     3
 10
60.0
 20
260.8999999999999773
 30
-0.0000000000000579
 11
-60.0
 21
260.8999999999999773
 31
-0.0000000000000579
210
0.0
220
1.0
230
-0.0000000000000002
  0
LINE
  5
94EF
  8
0
  6
CONTINUOUS
 62
     3
 10
51.2056112519549629
 20
235.9000000000000057
 30
-0.0000000000000524
 11
-51.2056112519549629
 21
235.9000000000000057
 31
-0.0000000000000524
210
0.0
220
1.0
230
-0.0000000000000002
  0
LINE
  5
94F0
  8
0
  6
CONTINUOUS
 62
     3
 10
55.5217391304348098
 20
249.9000000000000057
 30
-0.0000000000000555
 11
-55.5217391304348098
 21
249.9000000000000057
 31
-0.0000000000000555
210
0.0
220
1.0
230
-0.0000000000000002
  0
LINE
  5
94F1
  8
0
  6
CONTINUOUS
 62
     3
 10
54.9565217391304301
 20
253.9000000000000057
 30
-0.0000000000000564
 11
-54.9565217391304301
 21
253.9000000000000057
 31
-0.0000000000000564
210
0.0
220
1.0
230
-0.0000000000000002
  0
ARC
  5
94F2
  8
0
  6
CONTINUOUS
 62
     3
 10
-59.5000000000000071
 20
259.3999999999999773
 30
0.0
 40
0.4999999999999929
210
0.0
220
-0.0000000000000002
230
-1.0
 50
180.0
 51
270.0000000000007958
  0
ARC
  5
94F3
  8
0
  6
CONTINUOUS
 62
     3
 10
59.5000000000000071
 20
259.3999999999999773
 30
0.0
 40
0.5
210
0.0
220
-0.0000000000000002
230
-1.0
 50
269.9999999999992042
 51
0.0
  0
LINE
  5
94F4
  8
0
  6
CONTINUOUS
 62
     3
 10
-60.0
 20
259.3999999999999773
 30
-0.0000000000000576
 11
-60.0
 21
260.8999999999999773
 31
-0.0000000000000579
210
0.0
220
1.0
230
-0.0000000000000002
  0
LINE
  5
94F5
  8
0
  6
CONTINUOUS
 62
     3
 10
60.0
 20
259.3999999999999773
 30
-0.0000000000000576
 11
60.0
 21
260.8999999999999773
 31
-0.0000000000000579
210
0.0
220
1.0
230
-0.0000000000000002
  0
ARC
  5
94F6
  8
0
  6
CONTINUOUS
 62
     3
 10
-51.2056112519549629
 20
237.9000000000000057
 30
0.0
 40
1.999999999999984
210
0.0
220
-0.0000000000000002
230
-1.0
 50
186.2034479016911916
 51
270.0000000000003979
  0
ARC
  5
94F7
  8
0
  6
CONTINUOUS
 62
     3
 10
51.2056112519549629
 20
237.9000000000000057
 30
0.0
 40
2.0
210
0.0
220
-0.0000000000000002
230
-1.0
 50
270.0
 51
353.7965520983078136
  0
LINE
  5
94F8
  8
0
  6
CONTINUOUS
 62
     3
 10
-53.1939001780938625
 20
237.6838816384631059
 30
-0.0000000000000528
 11
-54.5217391304348382
 21
249.9000000000000057
 31
-0.0000000000000555
210
0.0
220
1.0
230
-0.0000000000000002
  0
LINE
  5
94F9
  8
0
  6
CONTINUOUS
 62
     3
 10
53.1939001780938625
 20
237.6838816384631912
 30
-0.0000000000000528
 11
54.5217391304348382
 21
249.9000000000000057
 31
-0.0000000000000555
210
0.0
220
1.0
230
-0.0000000000000002
  0
LINE
  5
94FA
  8
0
  6
CONTINUOUS
 62
     3
 10
54.9565217391304301
 20
253.9000000000000057
 30
-0.0000000000000564
 11
55.5217391304348098
 21
249.9000000000000057
 31
-0.0000000000000555
210
0.0
220
1.0
230
-0.0000000000000002
  0
LINE
  5
94FB
  8
0
  6
CONTINUOUS
 62
     3
 10
-54.9565217391304301
 20
253.9000000000000057
 30
-0.0000000000000564
 11
-55.5217391304348098
 21
249.9000000000000057
 31
-0.0000000000000555
210
0.0
220
1.0
230
-0.0000000000000002
  0
LINE
  5
94FC
  8
0
  6
CONTINUOUS
 62
     3
 10
-54.9565217391304088
 20
253.9000000000000057
 30
-0.0000000000000564
 11
-55.4999999999999716
 21
258.8999999999999773
 31
-0.0000000000000575
210
0.0
220
1.0
230
-0.0000000000000002
  0
LINE
  5
94FD
  8
0
  6
CONTINUOUS
 62
     3
 10
54.9565217391304088
 20
253.9000000000000057
 30
-0.0000000000000564
 11
55.4999999999999716
 21
258.8999999999999773
 31
-0.0000000000000575
210
0.0
220
1.0
230
-0.0000000000000002
  0
LINE
  5
94FE
  8
0
  6
VERDECKT
 62
     1
 10
-48.015444246572649
 20
0.248069469178418
 30
-0.0000000000000001
 11
48.0154442465726632
 21
0.248069469178418
 31
-0.0000000000000001
210
0.0
220
1.0
230
-0.0000000000000002
  0
LINE
  5
94FF
  8
0
  6
VERDECKT
 62
     1
 10
56.8651840162632212
 20
123.9920000000000044
 30
-0.0000000000000275
 11
-56.8651840162632212
 21
123.9920000000000044
 31
-0.0000000000000275
210
0.0
220
1.0
230
-0.0000000000000002
  0
LINE
  5
9500
  8
0
  6
VERDECKT
 62
     1
 10
48.0154442465726632
 20
0.2480694691784177
 30
-0.0000000000000001
 11
50.0
 21
-0.0000000000000006
 31
0.0
210
0.0
220
1.0
230
-0.0000000000000002
  0
LINE
  5
9501
  8
0
  6
VERDECKT
 62
     1
 10
-48.0154442465726632
 20
0.2480694691784177
 30
-0.0000000000000001
 11
-50.0
 21
-0.0000000000000006
 31
0.0
210
0.0
220
1.0
230
-0.0000000000000002
  0
LINE
  5
9502
  8
0
  6
VERDECKT
 62
     1
 10
-48.0154442465726632
 20
0.2480694691784189
 30
-0.0000000000000001
 11
-48.9844355629253627
 21
8.0000000000000018
 31
-0.0000000000000018
210
0.0
220
1.0
230
-0.0000000000000002
  0
LINE
  5
9503
  8
0
  6
VERDECKT
 62
     1
 10
48.0154442465726632
 20
0.2480694691784189
 30
-0.0000000000000001
 11
48.9844355629253627
 21
8.0000000000000018
 31
-0.0000000000000018
210
0.0
220
1.0
230
-0.0000000000000002
  0
LINE
  5
9504
  8
0
  6
VERDECKT
 62
     1
 10
-56.8651840162632212
 20
123.9920000000000044
 30
-0.0000000000000275
 11
-58.5925913220252497
 21
125.0
 31
-0.0000000000000278
210
0.0
220
1.0
230
-0.0000000000000002
  0
LINE
  5
9505
  8
0
  6
VERDECKT
 62
     1
 10
56.8651840162632212
 20
123.9920000000000044
 30
-0.0000000000000275
 11
58.5925913220252497
 21
125.0
 31
-0.0000000000000278
210
0.0
220
1.0
230
-0.0000000000000002
  0
ARC
  5
9506
  8
0
  6
VERDECKT
 62
     1
 10
-37.0000000000000568
 20
112.4000000000000057
 30
0.0
 40
22.9999999999999183
210
0.0
220
-0.0000000000000002
230
-1.0
 50
149.7350073890019075
 51
180.0
  0
ARC
  5
9507
  8
0
  6
VERDECKT
 62
     1
 10
37.0000000000000568
 20
112.4000000000000057
 30
0.0
 40
22.9999999999999183
210
0.0
220
-0.0000000000000002
230
-1.0
 50
360.0
 51
30.2649926109980996
  0
LINE
  5
9508
  8
0
  6
VERDECKT
 62
     1
 10
-59.9999999999999929
 20
97.2000000000000171
 30
-0.0000000000000216
 11
-59.9999999999999929
 21
112.4000000000000057
 31
-0.000000000000025
210
0.0
220
1.0
230
-0.0000000000000002
  0
LINE
  5
9509
  8
0
  6
VERDECKT
 62
     1
 10
59.9999999999999929
 20
97.2000000000000171
 30
-0.0000000000000216
 11
59.9999999999999929
 21
112.4000000000000057
 31
-0.000000000000025
210
0.0
220
1.0
230
-0.0000000000000002
  0
ARC
  5
950A
  8
0
  6
VERDECKT
 62
     1
 10
-38.0842764405716423
 20
97.2000000000000171
 30
0.0
 40
21.9157235594283399
210
0.0
220
-0.0000000000000002
230
-1.0
 50
180.0
 51
212.7887115741220896
  0
ARC
  5
950B
  8
0
  6
VERDECKT
 62
     1
 10
38.0842764405715997
 20
97.2000000000000455
 30
0.0
 40
21.9157235594283897
210
0.0
220
-0.0000000000000002
230
-1.0
 50
327.2112884258780241
 51
0.0
  0
LINE
  5
950C
  8
0
  6
VERDECKT
 62
     1
 10
-51.5225907039546485
 20
77.5921399026079115
 30
-0.0000000000000172
 11
-56.5082404080152472
 21
85.3317022762477535
 31
-0.0000000000000189
210
0.0
220
1.0
230
-0.0000000000000002
  0
LINE
  5
950D
  8
0
  6
VERDECKT
 62
     1
 10
51.5225907039546485
 20
77.5921399026079115
 30
-0.0000000000000172
 11
56.5082404080152614
 21
85.3317022762477677
 31
-0.0000000000000189
210
0.0
220
1.0
230
-0.0000000000000002
  0
ARC
  5
950E
  8
0
  6
VERDECKT
 62
     1
 10
-64.8328198334036756
 20
69.0179936244885823
 30
0.0
 40
15.8328198334036703
210
0.0
220
-0.0000000000000002
230
-1.0
 50
359.9999999999998863
 51
32.7887115741222175
  0
ARC
  5
950F
  8
0
  6
VERDECKT
 62
     1
 10
64.8328198334038461
 20
69.0179936244885397
 30
0.0
 40
15.8328198334038408
210
0.0
220
-0.0000000000000002
230
-1.0
 50
147.2112884258779957
 51
180.0
  0
LINE
  5
9510
  8
0
  6
VERDECKT
 62
     1
 10
-49.0
 20
8.0000000000000018
 30
-0.0000000000000018
 11
-49.0
 21
69.0179936244885539
 31
-0.0000000000000153
210
0.0
220
1.0
230
-0.0000000000000002
  0
LINE
  5
9511
  8
0
  6
VERDECKT
 62
     1
 10
49.0
 20
8.0000000000000018
 30
-0.0000000000000018
 11
49.0
 21
69.0179936244885539
 31
-0.0000000000000153
210
0.0
220
1.0
230
-0.0000000000000002
  0
LINE
  5
9512
  8
0
  6
VERDECKT
 62
     1
 10
-56.5995849235805721
 20
164.4000000000000057
 30
-0.0000000000000365
 11
56.5995849235805508
 21
164.4000000000000057
 31
-0.0000000000000365
210
0.0
220
1.0
230
-0.0000000000000002
  0
LINE
  5
9513
  8
0
  6
VERDECKT
 62
     1
 10
-47.5
 20
161.899999999999892
 30
-0.0000000000000359
 11
47.5
 21
161.899999999999892
 31
-0.0000000000000359
210
0.0
220
1.0
230
-0.0000000000000002
  0
LINE
  5
9514
  8
0
  6
VERDECKT
 62
     1
 10
-52.5000000000000284
 20
181.1999999999999034
 30
-0.0000000000000402
 11
52.5
 21
181.1999999999999034
 31
-0.0000000000000402
210
0.0
220
1.0
230
-0.0000000000000002
  0
LINE
  5
9515
  8
0
  6
VERDECKT
 62
     1
 10
56.5995849235805579
 20
164.4000000000000057
 30
-0.0000000000000365
 11
57.9999999999999929
 21
162.4000000000000057
 31
-0.0000000000000361
210
0.0
220
1.0
230
-0.0000000000000002
  0
LINE
  5
9516
  8
0
  6
VERDECKT
 62
     1
 10
-56.5995849235805579
 20
164.4000000000000057
 30
-0.0000000000000365
 11
-58.0
 21
162.4000000000000057
 31
-0.0000000000000361
210
0.0
220
1.0
230
-0.0000000000000002
  0
ARC
  5
9517
  8
0
  6
VERDECKT
 62
     1
 10
49.5000000000002132
 20
165.3999999999998067
 30
0.0
 40
4.999999999999738
210
0.0
220
-0.0000000000000002
230
-1.0
 50
323.1301023541565769
 51
348.4630409671855773
  0
ARC
  5
9518
  8
0
  6
VERDECKT
 62
     1
 10
-49.4999999999999787
 20
165.399999999999892
 30
0.0
 40
4.9999999999999947
210
0.0
220
-0.0000000000000002
230
-1.0
 50
191.5369590328151048
 51
216.8698976458429115
  0
LINE
  5
9519
  8
0
  6
VERDECKT
 62
     1
 10
47.5
 20
161.9000000000000057
 30
-0.0000000000000359
 11
47.5
 21
160.4000000000000057
 31
-0.0000000000000356
210
0.0
220
1.0
230
-0.0000000000000002
  0
LINE
  5
951A
  8
0
  6
VERDECKT
 62
     1
 10
-47.5
 20
161.899999999999892
 30
-0.0000000000000359
 11
-47.5
 21
160.4000000000000057
 31
-0.0000000000000356
210
0.0
220
1.0
230
-0.0000000000000002
  0
ARC
  5
951B
  8
0
  6
VERDECKT
 62
     1
 10
47.5
 20
166.9000000000000057
 30
0.0
 40
5.0
210
0.0
220
-0.0000000000000002
230
-1.0
 50
270.0
 51
0.0
  0
ARC
  5
951C
  8
0
  6
VERDECKT
 62
     1
 10
-47.5
 20
166.9000000000000057
 30
0.0
 40
5.0
210
0.0
220
-0.0000000000000002
230
-1.0
 50
180.000000000000199
 51
270.0
  0
LINE
  5
951D
  8
0
  6
VERDECKT
 62
     1
 10
52.5
 20
181.1999999999999034
 30
-0.0000000000000402
 11
52.5
 21
166.9000000000000057
 31
-0.0000000000000371
210
0.0
220
1.0
230
-0.0000000000000002
  0
LINE
  5
951E
  8
0
  6
VERDECKT
 62
     1
 10
-52.5
 20
181.1999999999999034
 30
-0.0000000000000402
 11
-52.5
 21
166.9000000000000057
 31
-0.0000000000000371
210
0.0
220
1.0
230
-0.0000000000000002
  0
LINE
  5
951F
  8
0
  6
VERDECKT
 62
     1
 10
-52.5
 20
181.1999999999999034
 30
-0.0000000000000402
 11
-53.8633867356077829
 21
186.288228567653789
 31
-0.0000000000000414
210
0.0
220
1.0
230
-0.0000000000000002
  0
LINE
  5
9520
  8
0
  6
VERDECKT
 62
     1
 10
52.5
 20
181.1999999999999034
 30
-0.0000000000000402
 11
53.86338673560779
 21
186.288228567653789
 31
-0.0000000000000414
210
0.0
220
1.0
230
-0.0000000000000002
  0
ARC
  5
9521
  8
0
  6
VERDECKT
 62
     1
 10
55.3122754750413677
 20
185.899999999999892
 30
0.0
 40
1.5
210
0.0
220
-0.0000000000000002
230
-1.0
 50
89.99999999999973
 51
164.9999999999986926
  0
ARC
  5
9522
  8
0
  6
VERDECKT
 62
     1
 10
-55.3122754750413677
 20
185.899999999999892
 30
0.0
 40
1.49999999999999
210
0.0
220
-0.0000000000000002
230
-1.0
 50
15.0000000000013092
 51
90.0000000000002984
  0
LINE
  5
9523
  8
0
  6
VERDECKT
 62
     1
 10
-50.7570140649436325
 20
237.9000000000000057
 30
-0.0000000000000528
 11
50.7570140649436325
 21
237.9000000000000057
 31
-0.0000000000000528
210
0.0
220
1.0
230
-0.0000000000000002
  0
LINE
  5
9524
  8
0
  6
VERDECKT
 62
     1
 10
51.6403938606505832
 20
241.9000000000000057
 30
-0.0000000000000537
 11
-51.6403938606505832
 21
241.9000000000000057
 31
-0.0000000000000537
210
0.0
220
1.0
230
-0.0000000000000002
  0
LINE
  5
9525
  8
0
  6
VERDECKT
 62
     1
 10
52.8360460345636511
 20
252.9000000000000057
 30
-0.0000000000000562
 11
-52.8360460345636511
 21
252.9000000000000057
 31
-0.0000000000000562
210
0.0
220
1.0
230
-0.0000000000000002
  0
LINE
  5
9526
  8
0
  6
VERDECKT
 62
     1
 10
52.7273503823897087
 20
251.9000000000000057
 30
-0.0000000000000559
 11
-52.7273503823897087
 21
251.9000000000000057
 31
-0.0000000000000559
210
0.0
220
1.0
230
-0.0000000000000002
  0
LINE
  5
9527
  8
0
  6
VERDECKT
 62
     1
 10
52.2925677736940884
 20
247.9000000000000057
 30
-0.000000000000055
 11
-52.2925677736940884
 21
247.9000000000000057
 31
-0.000000000000055
210
0.0
220
1.0
230
-0.0000000000000002
  0
LINE
  5
9528
  8
0
  6
VERDECKT
 62
     1
 10
52.1838721215200891
 20
246.9000000000000057
 30
-0.0000000000000548
 11
-52.1838721215200891
 21
246.9000000000000057
 31
-0.0000000000000548
210
0.0
220
1.0
230
-0.0000000000000002
  0
LINE
  5
9529
  8
0
  6
VERDECKT
 62
     1
 10
51.7490895128245185
 20
242.9000000000000909
 30
-0.0000000000000539
 11
-51.7490895128245185
 21
242.9000000000000909
 31
-0.0000000000000539
210
0.0
220
1.0
230
-0.0000000000000002
  0
ARC
  5
952A
  8
0
  6
VERDECKT
 62
     1
 10
-50.7570140649436183
 20
238.4000000000000057
 30
0.0
 40
0.4999999999999912
210
0.0
220
-0.0000000000000002
230
-1.0
 50
186.2034479016878947
 51
270.0000000000007958
  0
ARC
  5
952B
  8
0
  6
VERDECKT
 62
     1
 10
50.7570140649436112
 20
238.4000000000000057
 30
0.0
 40
0.5
210
0.0
220
-0.0000000000000002
230
-1.0
 50
270.0
 51
353.7965520983063925
  0
LINE
  5
952C
  8
0
  6
VERDECKT
 62
     1
 10
-51.2540862964783415
 20
238.3459704096158021
 30
-0.0000000000000529
 11
-51.6403938606505619
 21
241.9000000000000057
 31
-0.0000000000000537
210
0.0
220
1.0
230
-0.0000000000000002
  0
LINE
  5
952D
  8
0
  6
VERDECKT
 62
     1
 10
51.2540862964783415
 20
238.3459704096158021
 30
-0.0000000000000529
 11
51.6403938606505619
 21
241.9000000000000057
 31
-0.0000000000000537
210
0.0
220
1.0
230
-0.0000000000000002
  0
LINE
  5
952E
  8
0
  6
VERDECKT
 62
     1
 10
-52.8360460345636511
 20
252.9000000000000057
 30
-0.0000000000000562
 11
-53.7056112519549131
 21
260.8999999999999773
 31
-0.0000000000000579
210
0.0
220
1.0
230
-0.0000000000000002
  0
LINE
  5
952F
  8
0
  6
VERDECKT
 62
     1
 10
52.8360460345636511
 20
252.9000000000000057
 30
-0.0000000000000562
 11
53.7056112519549131
 21
260.8999999999999773
 31
-0.0000000000000579
210
0.0
220
1.0
230
-0.0000000000000002
  0
ARC
  5
9530
  8
0
  6
VERDECKT
 62
     1
 10
-52.781698208476719
 20
252.4000000000000057
 30
0.0
 40
0.5029450130982351
210
0.0
220
-0.0000000000000002
230
-1.0
 50
276.2034479016979276
 51
89.9999999999983373
  0
ARC
  5
9531
  8
0
  6
VERDECKT
 62
     1
 10
-52.7816982084770601
 20
252.400000000008788
 30
0.0
 40
0.502945013089402
210
0.0
220
-0.0000000000000002
230
-1.0
 50
89.9999999999603233
 51
96.2034479017592474
  0
ARC
  5
9532
  8
0
  6
VERDECKT
 62
     1
 10
52.7816982084770601
 20
252.400000000008788
 30
0.0
 40
0.5029450130894025
210
0.0
220
-0.0000000000000002
230
-1.0
 50
83.7965520982407526
 51
90.0000000000396625
  0
ARC
  5
9533
  8
0
  6
VERDECKT
 62
     1
 10
52.781698208476719
 20
252.4000000000000057
 30
0.0
 40
0.5029450130982412
210
0.0
220
-0.0000000000000002
230
-1.0
 50
90.0000000000016058
 51
263.7965520983020724
  0
LINE
  5
9534
  8
0
  6
VERDECKT
 62
     1
 10
52.7816982084767119
 20
252.90294501309819
 30
-0.0000000000000562
 11
-52.7816982084767119
 21
252.90294501309819
 31
-0.0000000000000562
210
0.0
220
1.0
230
-0.0000000000000002
  0
LINE
  5
9535
  8
0
  6
VERDECKT
 62
     1
 10
-52.2925677736940884
 20
247.9000000000000057
 30
-0.000000000000055
 11
-52.7273503823897087
 21
251.9000000000000057
 31
-0.0000000000000559
210
0.0
220
1.0
230
-0.0000000000000002
  0
LINE
  5
9536
  8
0
  6
VERDECKT
 62
     1
 10
52.2925677736940884
 20
247.9000000000000057
 30
-0.000000000000055
 11
52.7273503823897087
 21
251.9000000000000057
 31
-0.0000000000000559
210
0.0
220
1.0
230
-0.0000000000000002
  0
ARC
  5
9537
  8
0
  6
VERDECKT
 62
     1
 10
-52.2382199476070781
 20
247.4000000000000057
 30
0.0
 40
0.5029450130982047
210
0.0
220
-0.0000000000000002
230
-1.0
 50
276.2034479016958244
 51
90.00000000000081
  0
ARC
  5
9538
  8
0
  6
VERDECKT
 62
     1
 10
-52.2382199476063889
 20
247.3999999999884096
 30
0.0
 40
0.5029450131098372
210
0.0
220
-0.0000000000000002
230
-1.0
 50
90.000000000080135
 51
96.2034479016332398
  0
ARC
  5
9539
  8
0
  6
VERDECKT
 62
     1
 10
52.2382199476063889
 20
247.3999999999884096
 30
0.0
 40
0.5029450131098377
210
0.0
220
-0.0000000000000002
230
-1.0
 50
83.7965520983667744
 51
89.9999999999198792
  0
ARC
  5
953A
  8
0
  6
VERDECKT
 62
     1
 10
52.2382199476070781
 20
247.4000000000000057
 30
0.0
 40
0.5029450130982128
210
0.0
220
-0.0000000000000002
230
-1.0
 50
89.9999999999992042
 51
263.7965520983041756
  0
LINE
  5
953B
  8
0
  6
VERDECKT
 62
     1
 10
52.2382199476070781
 20
247.90294501309819
 30
-0.000000000000055
 11
-52.2382199476070923
 21
247.90294501309819
 31
-0.000000000000055
210
0.0
220
1.0
230
-0.0000000000000002
  0
LINE
  5
953C
  8
0
  6
VERDECKT
 62
     1
 10
-51.7490895128245469
 20
242.9000000000000909
 30
-0.0000000000000539
 11
-52.1838721215201318
 21
246.9000000000000057
 31
-0.0000000000000548
210
0.0
220
1.0
230
-0.0000000000000002
  0
LINE
  5
953D
  8
0
  6
VERDECKT
 62
     1
 10
51.7490895128245469
 20
242.9000000000000057
 30
-0.0000000000000539
 11
52.1838721215201318
 21
246.9000000000000057
 31
-0.0000000000000548
210
0.0
220
1.0
230
-0.0000000000000002
  0
ARC
  5
953E
  8
0
  6
VERDECKT
 62
     1
 10
-51.6947416867375793
 20
242.4000000000000057
 30
0.0
 40
0.5029450130982612
210
0.0
220
-0.0000000000000002
230
-1.0
 50
276.2034479016950854
 51
90.00000000000081
  0
ARC
  5
953F
  8
0
  6
VERDECKT
 62
     1
 10
-51.6947416867379275
 20
242.400000000008589
 30
0.0
 40
0.5029450130897432
210
0.0
220
-0.0000000000000002
230
-1.0
 50
89.9999999999611475
 51
96.2034479017566753
  0
ARC
  5
9540
  8
0
  6
VERDECKT
 62
     1
 10
51.6947416867379417
 20
242.4000000000089017
 30
0.0
 40
0.5029450130894306
210
0.0
220
-0.0000000000000002
230
-1.0
 50
83.7965520982411078
 51
90.0000000000397051
  0
ARC
  5
9541
  8
0
  6
VERDECKT
 62
     1
 10
51.6947416867375793
 20
242.4000000000000057
 30
0.0
 40
0.5029450130982696
210
0.0
220
-0.0000000000000002
230
-1.0
 50
89.9999999999992042
 51
263.7965520983049146
  0
LINE
  5
9542
  8
0
  6
VERDECKT
 62
     1
 10
51.694741686737558
 20
242.9029450130983037
 30
-0.0000000000000539
 11
-51.6947416867375793
 21
242.9029450130983037
 31
-0.0000000000000539
210
0.0
220
1.0
230
-0.0000000000000002
  0
ENDBLK
  5
9544
  8
0
  0
BLOCK
  8
0
  2
A$C8C7F2DFA
 70
     0
 10
0.0
 20
0.0
 30
0.0
  3
A$C8C7F2DFA
  1

  0
CIRCLE
  5
9548
  8
0
  6
CONTINUOUS
 62
     3
 10
0.0000000000000496
 20
0.0000000000000064
 30
0.0
 40
61.9999999999999929
  0
CIRCLE
  5
9549
  8
0
  6
CONTINUOUS
 62
     3
 10
0.0000000000001152
 20
-0.000000000000042
 30
0.0
 40
60.0
  0
CIRCLE
  5
954A
  8
0
  6
CONTINUOUS
 62
     3
 10
0.0000000000001152
 20
-0.000000000000042
 30
0.0
 40
53.7056112519548989
  0
CIRCLE
  5
954B
  8
0
  6
CONTINUOUS
 62
     3
 10
0.0000000000001117
 20
-0.0000000000000425
 30
0.0
 40
52.8360460345636511
  0
CIRCLE
  5
954C
  8
0
  6
CONTINUOUS
 62
     3
 10
0.0000000000001115
 20
-0.0000000000000425
 30
0.0
 40
52.2787531953784708
  0
CIRCLE
  5
954D
  8
0
  6
CONTINUOUS
 62
     3
 10
0.0000000000001093
 20
-0.0000000000000428
 30
0.0
 40
51.7352749345088867
  0
CIRCLE
  5
954E
  8
0
  6
CONTINUOUS
 62
     3
 10
0.000000000000107
 20
-0.0000000000000431
 30
0.0
 40
51.1917966736393169
  0
CIRCLE
  5
954F
  8
0
  6
VERDECKT
 62
     1
 10
0.0000000000000035
 20
0.0
 30
0.0
 40
48.9844355629253698
  0
CIRCLE
  5
9550
  8
0
  6
VERDECKT
 62
     1
 10
0.0
 20
-0.0000000000000005
 30
0.0
 40
50.0
  0
CIRCLE
  5
9551
  8
0
  6
VERDECKT
 62
     1
 10
0.0000000000000001
 20
-0.0000000000000005
 30
0.0
 40
48.0154442465726632
  0
CIRCLE
  5
9552
  8
0
  6
VERDECKT
 62
     1
 10
0.0000000000000552
 20
0.0000000000000072
 30
0.0
 40
58.5925913220252426
  0
CIRCLE
  5
9553
  8
0
  6
VERDECKT
 62
     1
 10
0.0000000000000548
 20
0.0000000000000071
 30
0.0
 40
56.8651840162632212
  0
CIRCLE
  5
9554
  8
0
  6
VERDECKT
 62
     1
 10
0.0000000000000305
 20
0.0000000000000037
 30
0.0
 40
49.0
  0
CIRCLE
  5
9555
  8
0
  6
VERDECKT
 62
     1
 10
0.0000000000000305
 20
0.0000000000000037
 30
0.0
 40
51.0
  0
CIRCLE
  5
9556
  8
0
  6
VERDECKT
 62
     1
 10
0.0000000000000797
 20
0.0000000000000054
 30
0.0
 40
59.75
  0
CIRCLE
  5
9557
  8
0
  6
VERDECKT
 62
     1
 10
0.000000000000076
 20
0.0000000000000019
 30
0.0
 40
57.5043306663375233
  0
CIRCLE
  5
9558
  8
0
  6
VERDECKT
 62
     1
 10
0.0000000000000737
 20
-0.0000000000000003
 30
0.0
 40
57.75
  0
CIRCLE
  5
9559
  8
0
  6
VERDECKT
 62
     1
 10
0.0000000000000717
 20
-0.0000000000000023
 30
0.0
 40
58.0
  0
CIRCLE
  5
955A
  8
0
  6
VERDECKT
 62
     1
 10
0.0000000000000726
 20
-0.0000000000000014
 30
0.0
 40
56.5995849235805508
  0
CIRCLE
  5
955B
  8
0
  6
VERDECKT
 62
     1
 10
0.0000000000000726
 20
-0.0000000000000014
 30
0.0
 40
54.3989794855663433
  0
CIRCLE
  5
955C
  8
0
  6
VERDECKT
 62
     1
 10
0.0000000000000715
 20
-0.0000000000000025
 30
0.0
 40
47.5
  0
CIRCLE
  5
955D
  8
0
  6
VERDECKT
 62
     1
 10
0.00000000000008
 20
0.0000000000000058
 30
0.0
 40
52.5
  0
CIRCLE
  5
955E
  8
0
  6
VERDECKT
 62
     1
 10
0.0000000000000793
 20
0.0000000000000051
 30
0.0
 40
54.8425184053936334
  0
CIRCLE
  5
955F
  8
0
  6
VERDECKT
 62
     1
 10
0.0000000000000797
 20
0.0000000000000055
 30
0.0
 40
59.7503859521235299
  0
CIRCLE
  5
9560
  8
0
  6
VERDECKT
 62
     1
 10
0.0000000000001143
 20
-0.0000000000000421
 30
0.0
 40
55.5
  0
CIRCLE
  5
9561
  8
0
  6
VERDECKT
 62
     1
 10
0.0000000000001104
 20
-0.0000000000000427
 30
0.0
 40
54.5217391304348027
  0
CIRCLE
  5
9562
  8
0
  6
VERDECKT
 62
     1
 10
0.0000000000001068
 20
-0.0000000000000432
 30
0.0
 40
51.6403938606505903
  0
CIRCLE
  5
9563
  8
0
  6
VERDECKT
 62
     1
 10
0.0000000000001104
 20
-0.0000000000000427
 30
0.0
 40
55.5217391304348098
  0
CIRCLE
  5
9564
  8
0
  6
VERDECKT
 62
     1
 10
0.0000000000001121
 20
-0.0000000000000424
 30
0.0
 40
54.9565217391304301
  0
CIRCLE
  5
9565
  8
0
  6
VERDECKT
 62
     1
 10
0.0000000000001112
 20
-0.0000000000000426
 30
0.0
 40
52.7273503823897087
  0
CIRCLE
  5
9566
  8
0
  6
VERDECKT
 62
     1
 10
0.0000000000001095
 20
-0.0000000000000428
 30
0.0
 40
52.2925677736940884
  0
CIRCLE
  5
9567
  8
0
  6
VERDECKT
 62
     1
 10
0.000000000000109
 20
-0.0000000000000429
 30
0.0
 40
52.1838721215200891
  0
CIRCLE
  5
9568
  8
0
  6
VERDECKT
 62
     1
 10
0.0000000000001073
 20
-0.0000000000000431
 30
0.0
 40
51.7490895128245327
  0
ENDBLK
  5
956A
  8
0
  0
ENDSEC
  0
SECTION
  2
ENTITIES
  0
TEXT
  5
69BF
  8
VOLL
 10
78.076754716981128
 20
31.025947764705851
 30
0.0
 40
1.8
  1

  7
GREEKS
  0
INSERT
  5
69C0
  8
ADSK_ASSOC_ENTITY_BACKUPS
  2
*S2
 10
0.0
 20
0.0
 30
0.0
  0
INSERT
  5
9545
  8
0
  2
A$C040B220E
 10
0.0
 20
-0.248069469178418
 30
0.0
  0
INSERT
  5
956B
  8
0
  2
A$C8C7F2DFA
 10
-0.0000000000001137
 20
-100.2480694691783043
 30
0.0
  0
VIEWPORT
  5
1571
 67
     1
  8
0
 10
104.7950820922850994
 20
148.2447509765625
 30
0.0
 40
567.3581314878892954
 41
298.5415224913494967
 68
     1
 69
     1
1001
ACAD
1000
MVIEW
1002
{
1070
    16
1010
0.0
1020
0.0
1030
0.0
1010
0.0
1020
0.0
1030
1.0
1040
0.0
1040
298.5415224913494967
1040
104.7950820922850994
1040
148.2447509765625
1040
50.0
1040
0.0
1040
0.0
1070
     0
1070
  1500
1070
     1
1070
     1
1070
     0
1070
     0
1070
     0
1070
     0
1040
0.0
1040
0.0
1040
0.0
1040
10.0
1040
10.0
1040
10.0
1040
10.0
1070
     0
1002
{
1002
}
1002
}
1001
GENIUS_GENOBJ-N-SDF_13
1002
{
1000
OWNER
1000
GEN
1002
}
1001
GENIUS_GENODEF_13
1002
{
1000
HIER
1070
     0
1002
}
1002
{
1000
MANEDIT
1070
     0
1002
}
1002
{
1000
NOSEL
1070
     0
1002
}
1002
{
1000
BEHIND
1070
     0
1002
}
1002
{
1000
OTHER
1070
     0
1002
}
1002
{
1000
REACTOR
1002
}
1001
GENIUS_GENSCREG_15
1000
PF
1040
1.0
1000
DF
1040
1.0
1000
MIN
1011
-98.3237311841076007
1021
0.0
1031
0.0
1021
-84.5929851452383446
1031
0.0
1000
MAX
1011
756.7695330154733711
1021
0.0
1031
0.0
1021
339.8977580961391141
1031
0.0
1000
FLAGS
1070
     4
  0
ENDSEC
  0
EOF
