  0
SECTION
  2
HEADER
  9
$ACADVER
  1
AC1009
  9
$INSBASE
 10
0.0
 20
0.0
 30
0.0
  9
$EXTMIN
 10
-43.7123482712045188
 20
-0.0433990437343255
 30
-0.0051875924752949
  9
$EXTMAX
 10
44.2357806580023407
 20
170.007747874650903
 30
0.0077821803369034
  9
$LIMMIN
 10
0.0
 20
0.0
  9
$LIMMAX
 10
419.9999999999998863
 20
594.0
  9
$ORTHOMODE
 70
     1
  9
$REGENMODE
 70
     1
  9
$FILLMODE
 70
     1
  9
$QTEXTMODE
 70
     0
  9
$MIRRTEXT
 70
     1
  9
$DRAGMODE
 70
     2
  9
$LTSCALE
 40
20.0
  9
$OSMODE
 70
  2559
  9
$ATTMODE
 70
     1
  9
$TEXTSIZE
 40
3.5
  9
$TRACEWID
 40
0.5
  9
$TEXTSTYLE
  7
STANDARD
  9
$CLAYER
  8
STEMPEL
  9
$CELTYPE
  6
BYLAYER
  9
$CECOLOR
 62
   256
  9
$DIMSCALE
 40
2.0
  9
$DIMASZ
 40
3.5
  9
$DIMEXO
 40
1.0
  9
$DIMDLI
 40
7.0
  9
$DIMRND
 40
0.0
  9
$DIMDLE
 40
0.0
  9
$DIMEXE
 40
1.0
  9
$DIMTP
 40
0.0
  9
$DIMTM
 40
0.0
  9
$DIMTXT
 40
3.5
  9
$DIMCEN
 40
1.5
  9
$DIMTSZ
 40
0.0
  9
$DIMTOL
 70
     0
  9
$DIMLIM
 70
     0
  9
$DIMTIH
 70
     0
  9
$DIMTOH
 70
     0
  9
$DIMSE1
 70
     0
  9
$DIMSE2
 70
     0
  9
$DIMTAD
 70
     1
  9
$DIMZIN
 70
     8
  9
$DIMBLK
  1

  9
$DIMASO
 70
     1
  9
$DIMSHO
 70
     0
  9
$DIMPOST
  1

  9
$DIMAPOST
  1

  9
$DIMALT
 70
     0
  9
$DIMALTD
 70
     2
  9
$DIMALTF
 40
25.3999999999999986
  9
$DIMLFAC
 40
1.0
  9
$DIMTOFL
 70
     1
  9
$DIMTVP
 40
0.0
  9
$DIMTIX
 70
     0
  9
$DIMSOXD
 70
     0
  9
$DIMSAH
 70
     0
  9
$DIMBLK1
  1

  9
$DIMBLK2
  1

  9
$DIMSTYLE
  2
STANDARD
  9
$DIMCLRD
 70
     0
  9
$DIMCLRE
 70
     0
  9
$DIMCLRT
 70
     1
  9
$DIMTFAC
 40
0.5142857142857143
  9
$DIMGAP
 40
1.5
  9
$LUNITS
 70
     2
  9
$LUPREC
 70
     2
  9
$SKETCHINC
 40
1.0
  9
$FILLETRAD
 40
5.0
  9
$AUNITS
 70
     0
  9
$AUPREC
 70
     0
  9
$MENU
  1
ACAD
  9
$ELEVATION
 40
0.0
  9
$PELEVATION
 40
0.0
  9
$THICKNESS
 40
0.0
  9
$LIMCHECK
 70
     0
  9
$BLIPMODE
 70
     0
  9
$CHAMFERA
 40
0.0
  9
$CHAMFERB
 40
0.0
  9
$SKPOLY
 70
     0
  9
$TDCREATE
 40
2455397.8646990740671754
  9
$TDUPDATE
 40
2458904.4232870368286967
  9
$TDINDWG
 40
0.5264797917
  9
$TDUSRTIMER
 40
0.5264797917
  9
$USRTIMER
 70
     1
  9
$ANGBASE
 50
0.0
  9
$ANGDIR
 70
     0
  9
$PDMODE
 70
     0
  9
$PDSIZE
 40
0.0
  9
$PLINEWID
 40
0.0
  9
$COORDS
 70
     1
  9
$SPLFRAME
 70
     0
  9
$SPLINETYPE
 70
     6
  9
$SPLINESEGS
 70
     8
  9
$ATTDIA
 70
     1
  9
$ATTREQ
 70
     1
  9
$HANDLING
 70
     1
  9
$HANDSEED
  5
2293
  9
$SURFTAB1
 70
     6
  9
$SURFTAB2
 70
     6
  9
$SURFTYPE
 70
     6
  9
$SURFU
 70
     6
  9
$SURFV
 70
     6
  9
$UCSNAME
  2

  9
$UCSORG
 10
0.0
 20
0.0
 30
0.0
  9
$UCSXDIR
 10
1.0
 20
0.0
 30
0.0
  9
$UCSYDIR
 10
0.0
 20
1.0
 30
0.0
  9
$PUCSNAME
  2

  9
$PUCSORG
 10
0.0
 20
0.0
 30
0.0
  9
$PUCSXDIR
 10
1.0
 20
0.0
 30
0.0
  9
$PUCSYDIR
 10
0.0
 20
1.0
 30
0.0
  9
$USERI1
 70
     0
  9
$USERI2
 70
     0
  9
$USERI3
 70
     0
  9
$USERI4
 70
     0
  9
$USERI5
 70
     0
  9
$USERR1
 40
0.0
  9
$USERR2
 40
0.0
  9
$USERR3
 40
0.0
  9
$USERR4
 40
0.0
  9
$USERR5
 40
0.0
  9
$WORLDVIEW
 70
     1
  9
$SHADEDGE
 70
     3
  9
$SHADEDIF
 70
    70
  9
$TILEMODE
 70
     1
  9
$MAXACTVP
 70
    16
  9
$PLIMCHECK
 70
     0
  9
$PEXTMIN
 10
1.0000000000000000E+20
 20
1.0000000000000000E+20
 30
1.0000000000000000E+20
  9
$PEXTMAX
 10
-1.0000000000000000E+20
 20
-1.0000000000000000E+20
 30
-1.0000000000000000E+20
  9
$PLIMMIN
 10
-5.7422645078345802
 20
-3.1826022037759509
  9
$PLIMMAX
 10
204.474085398048004
 20
294.1294304702316253
  9
$UNITMODE
 70
     0
  9
$VISRETAIN
 70
     0
  9
$PLINEGEN
 70
     0
  9
$PSLTSCALE
 70
     0
  0
ENDSEC
  0
SECTION
  2
TABLES
  0
TABLE
  2
VPORT
 70
     1
  0
VPORT
  2
*ACTIVE
 70
     0
 10
0.0
 20
0.0
 11
1.0
 21
1.0
 12
0.2617161933989109
 22
-0.0178255845416402
 13
0.0
 23
0.0
 14
1.0
 24
1.0
 15
10.0
 25
10.0
 16
-0.0000000000001083
 26
0.0
 36
487.8742976350084746
 17
0.0
 27
84.9999999999999432
 37
-0.0000000000000189
 40
170.9180176758281107
 41
1.868197278911564
 42
50.0
 43
0.0
 44
0.0
 50
0.0
 51
0.0
 71
     0
 72
  1500
 73
     1
 74
     0
 75
     0
 76
     0
 77
     0
 78
     0
  0
ENDTAB
  0
TABLE
  2
LTYPE
 70
     6
  0
LTYPE
  2
CONTINUOUS
 70
     0
  3
Solid line
 72
    65
 73
     0
 40
0.0
  0
LTYPE
  2
STRICHPUNKT
 70
     0
  3
__ . __ . __ . __ . __ . __ . __ . __ . __ . __
 72
    65
 73
     4
 40
1.0
 49
0.5
 49
-0.25
 49
0.0
 49
-0.25
  0
LTYPE
  2
RAND
 70
     0
  3
__ __ . __ __ . __ __ . __ __ . __ __ . __ __
 72
    65
 73
     6
 40
1.75
 49
0.5
 49
-0.25
 49
0.5
 49
-0.25
 49
0.0
 49
-0.25
  0
LTYPE
  2
VERDECKT
 70
     0
  3
Verdeckt __ __ __ __ __ __ __ __ __ __ __ __ __
 72
    65
 73
     2
 40
0.375
 49
0.25
 49
-0.125
  0
ENDTAB
  0
TABLE
  2
LAYER
 70
    14
  0
LAYER
  2
0
 70
     0
 62
     7
  6
CONTINUOUS
  0
LAYER
  2
VOLL
 70
     0
 62
     1
  6
CONTINUOUS
  0
LAYER
  2
STEMPEL
 70
     0
 62
     3
  6
CONTINUOUS
  0
LAYER
  2
DEFPOINTS
 70
     0
 62
     7
  6
RAND
  0
LAYER
  2
ADSK_ASSOC_ENTITY_BACKUPS
 70
     1
 62
    -7
  6
CONTINUOUS
  0
ENDTAB
  0
TABLE
  2
STYLE
 70
     3
  0
STYLE
  2
STANDARD
 70
     0
 40
0.0
 41
0.8
 50
0.0
 71
     0
 42
3.5
  3
simplex.shx
  4

  0
STYLE
  2
GREEKS
 70
     0
 40
0.0
 41
0.8
 50
0.0
 71
     0
 42
2.5
  3
SIMPLEX.shx
  4

  0
ENDTAB
  0
TABLE
  2
VIEW
 70
     1
  0
ENDTAB
  0
TABLE
  2
UCS
 70
     0
  0
ENDTAB
  0
TABLE
  2
APPID
 70
    23
  0
APPID
  2
ACAD
 70
     0
  0
APPID
  2
ACAD_NAV_VCDISPLAY
 70
     0
  0
APPID
  2
ACAD_STEPID
 70
     0
  0
APPID
  2
ACAECLAYERSTANDARD
 70
     0
  0
APPID
  2
ACCMTRANSPARENCY
 70
     0
  0
APPID
  2
ACAD_PSEXT
 70
     0
  0
APPID
  2
ACAD_EXEMPT_FROM_CAD_STANDARDS
 70
     0
  0
APPID
  2
ACSYNERGY
 70
     0
  0
APPID
  2
SYNERGY_BODY_TBR_ID
 70
     0
  0
APPID
  2
ACAD_VIEW_EDGE_ID
 70
     0
  0
APPID
  2
ACSYNERGYSKETCH
 70
     0
  0
APPID
  2
ACAD_MODELDOC_XFORM
 70
     0
  0
APPID
  2
ACAD_DSTYLE_DIMJAG
 70
     0
  0
APPID
  2
ACAD_DSTYLE_DIMBREAK
 70
     0
  0
APPID
  2
RAK
 70
     0
  0
APPID
  2
ACDBDYNAMICBLOCKGUID
 70
     0
  0
APPID
  2
ACAD_DSTYLE_DIMINSPECT
 70
     0
  0
APPID
  2
PLOTTRANSPARENCY
 70
     0
  0
APPID
  2
ACAD_DSTYLE_DIMTALN
 70
     0
  0
APPID
  2
ACADANNOPO
 70
     0
  0
APPID
  2
ACADANNOMONITORALERTICONDI
 70
     0
  0
APPID
  2
ACAD_MLEADERVER
 70
     0
  0
APPID
  2
AcDbAttr
 70
     0
  0
ENDTAB
  0
TABLE
  2
DIMSTYLE
 70
     2
  0
DIMSTYLE
  2
STANDARD
 70
     0
  3

  4

  5

  6

  7

 40
1.0
 41
0.18
 42
0.0625
 43
0.38
 44
0.18
 45
0.0
 46
0.0
 47
0.0
 48
0.0
140
0.18
141
0.09
142
0.0
143
25.3999999999999986
144
1.0
145
0.0
146
1.0
147
0.09
 71
     0
 72
     0
 73
     1
 74
     1
 75
     0
 76
     0
 77
     0
 78
     0
170
     0
171
     2
172
     0
173
     0
174
     0
175
     0
176
     0
177
     0
178
     0
  0
ENDTAB
  0
ENDSEC
  0
SECTION
  2
BLOCKS
  0
BLOCK
  8
0
  2
$MODEL_SPACE
 70
     0
 10
0.0
 20
0.0
 30
0.0
  3
$MODEL_SPACE
  1

  0
ENDBLK
  5
36
  8
0
  0
BLOCK
 67
     1
  8
0
  2
$PAPER_SPACE
 70
     0
 10
0.0
 20
0.0
 30
0.0
  3
$PAPER_SPACE
  1

  0
ENDBLK
  5
34
 67
     1
  8
0
  0
BLOCK
  8
0
  2
*S0
 70
     1
 10
0.0
 20
0.0
 30
0.0
  3
*S0
  1

  0
ENDBLK
  5
171D
  8
0
  0
BLOCK
  8
0
  2
A$C1A108C32
 70
     0
 10
0.0
 20
0.0
 30
0.0
  3
A$C1A108C32
  1

  0
LINE
  5
2205
  8
0
  6
CONTINUOUS
 62
     3
 10
35.8875793553185076
 20
-0.0000000000001137
 30
0.0
 11
-35.8875793553185076
 21
-0.0000000000001137
 31
0.0
210
0.0
220
1.0
230
-0.0000000000000002
  0
LINE
  5
2206
  8
0
  6
CONTINUOUS
 62
     3
 10
39.4500924592588333
 20
170.0
 30
-0.0000000000000377
 11
-39.4500924592588333
 21
170.0
 31
-0.0000000000000377
210
0.0
220
1.0
230
-0.0000000000000002
  0
ARC
  5
2207
  8
0
  6
CONTINUOUS
 62
     3
 10
-31.4999999999976588
 20
7.2183047145452797
 30
0.0
 40
5.0000000000024514
210
0.0
220
-0.0000000000000002
230
-1.0
 50
180.0000000000013074
 51
184.9999999999982947
  0
ARC
  5
2208
  8
0
  6
CONTINUOUS
 62
     3
 10
31.4999999999976907
 20
7.2183047145452797
 30
0.0
 40
5.0000000000024221
210
0.0
220
-0.0000000000000002
230
-1.0
 50
355.0000000000014779
 51
359.9999999999986926
  0
LINE
  5
2209
  8
0
  6
CONTINUOUS
 62
     3
 10
-35.8875793553184792
 20
-0.0000000000001106
 30
0.0
 11
-36.480973490458851
 21
6.7825260008069099
 31
-0.0000000000000015
210
0.0
220
1.0
230
-0.0000000000000002
  0
LINE
  5
220A
  8
0
  6
CONTINUOUS
 62
     3
 10
35.8875793553184792
 20
-0.0000000000001208
 30
0.0
 11
36.480973490458851
 21
6.7825260008069099
 31
-0.0000000000000015
210
0.0
220
1.0
230
-0.0000000000000002
  0
LINE
  5
220B
  8
0
  6
CONTINUOUS
 62
     3
 10
-36.5000000000001066
 20
7.2183047145451642
 30
-0.0000000000000016
 11
-36.5000000000001066
 21
109.6934003354314058
 31
-0.0000000000000244
210
0.0
220
1.0
230
-0.0000000000000002
  0
LINE
  5
220C
  8
0
  6
CONTINUOUS
 62
     3
 10
36.5000000000001066
 20
7.2183047145451642
 30
-0.0000000000000016
 11
36.5000000000001066
 21
109.6934003354314058
 31
-0.0000000000000244
210
0.0
220
1.0
230
-0.0000000000000002
  0
LINE
  5
220D
  8
0
  6
CONTINUOUS
 62
     3
 10
39.4500924592583999
 20
169.9999999999998863
 30
-0.0000000000000377
 11
39.75769467591536
 21
169.340344917615198
 31
-0.0000000000000376
210
0.0
220
1.0
230
-0.0000000000000002
  0
LINE
  5
220E
  8
0
  6
CONTINUOUS
 62
     3
 10
-39.4500924592588404
 20
170.0
 30
-0.0000000000000377
 11
-39.7576946759158005
 21
169.340344917615198
 31
-0.0000000000000376
210
0.0
220
1.0
230
-0.0000000000000002
  0
ARC
  5
220F
  8
0
  6
CONTINUOUS
 62
     3
 10
-17.1000000000006303
 20
158.7748883740964061
 30
0.0
 40
24.9999999999991616
210
0.0
220
-0.0000000000000002
230
-1.0
 50
154.9999999999957936
 51
180.0000000000003979
  0
ARC
  5
2210
  8
0
  6
CONTINUOUS
 62
     3
 10
17.1000000000013586
 20
158.7748883740964914
 30
0.0
 40
24.9999999999988702
210
0.0
220
-0.0000000000000002
230
-1.0
 50
359.9999999999993179
 51
25.0000000000043805
  0
LINE
  5
2211
  8
0
  6
CONTINUOUS
 62
     3
 10
-42.100000000000243
 20
154.7682800481863126
 30
-0.0000000000000344
 11
-42.100000000000243
 21
158.7748883740962071
 31
-0.0000000000000353
210
0.0
220
1.0
230
-0.0000000000000002
  0
LINE
  5
2212
  8
0
  6
CONTINUOUS
 62
     3
 10
42.0999999999997883
 20
154.7682800481863126
 30
-0.0000000000000344
 11
42.0999999999997883
 21
158.7748883740962071
 31
-0.0000000000000353
210
0.0
220
1.0
230
-0.0000000000000002
  0
ARC
  5
2213
  8
0
  6
CONTINUOUS
 62
     3
 10
-17.0999999999879506
 20
154.7000000000030866
 30
0.0
 40
25.0000932431375489
210
0.0
220
-0.0000000000000002
230
-1.0
 50
179.8435140456656995
 51
201.1831543930327939
  0
ARC
  5
2214
  8
0
  6
CONTINUOUS
 62
     3
 10
17.0999999999883983
 20
154.7000000000030866
 30
0.0
 40
25.0000932431375489
210
0.0
220
-0.0000000000000002
230
-1.0
 50
338.8168456069672061
 51
0.1564859543342713
  0
ARC
  5
2215
  8
0
  6
CONTINUOUS
 62
     3
 10
-51.6000000000016001
 20
141.3300000000006946
 30
0.0
 40
12.0000000000017994
210
0.0
220
-0.0000000000000002
230
-1.0
 50
0.0000000000015012
 51
21.1831543930283495
  0
ARC
  5
2216
  8
0
  6
CONTINUOUS
 62
     3
 10
51.600000000002062
 20
141.3300000000006946
 30
0.0
 40
12.0000000000017994
210
0.0
220
-0.0000000000000002
230
-1.0
 50
158.8168456069716115
 51
179.9999999999984936
  0
LINE
  5
2217
  8
0
  6
CONTINUOUS
 62
     3
 10
-39.6000000000002501
 20
120.3887264174150999
 30
-0.0000000000000267
 11
-39.6000000000002501
 21
141.3300000000010073
 31
-0.0000000000000314
210
0.0
220
1.0
230
-0.0000000000000002
  0
LINE
  5
2218
  8
0
  6
CONTINUOUS
 62
     3
 10
39.5999999999997883
 20
120.3887264174150999
 30
-0.0000000000000267
 11
39.5999999999997883
 21
141.3300000000010073
 31
-0.0000000000000314
210
0.0
220
1.0
230
-0.0000000000000002
  0
ARC
  5
2219
  8
0
  6
CONTINUOUS
 62
     3
 10
-27.5999999999985484
 20
120.3887264174154978
 30
0.0
 40
12.0000000000012506
210
0.0
220
-0.0000000000000002
230
-1.0
 50
180.0000000000017906
 51
212.3280641221554106
  0
ARC
  5
221A
  8
0
  6
CONTINUOUS
 62
     3
 10
27.5999999999989392
 20
120.3887264174154978
 30
0.0
 40
12.0000000000013003
210
0.0
220
-0.0000000000000002
230
-1.0
 50
327.6719358778444189
 51
359.9999999999980105
  0
ARC
  5
221B
  8
0
  6
CONTINUOUS
 62
     3
 10
-44.5000000000003979
 20
109.6934003354293026
 30
0.0
 40
8.0000000000006324
210
0.0
220
-0.0000000000000002
230
-1.0
 50
0.0000000000147578
 51
32.3280641221692875
  0
ARC
  5
221C
  8
0
  6
CONTINUOUS
 62
     3
 10
44.5000000000007105
 20
109.693400335429402
 30
0.0
 40
8.0000000000004903
210
0.0
220
-0.0000000000000002
230
-1.0
 50
147.6719358778308901
 51
179.9999999999855049
  0
LINE
  5
221D
  8
0
  6
VERDECKT
 62
     1
 10
34.2936678383716682
 20
0.1394491883961564
 30
0.0
 11
-34.2936678383716682
 21
0.1394491883961564
 31
0.0
210
0.0
220
1.0
230
-0.0000000000000002
  0
LINE
  5
221E
  8
0
  6
VERDECKT
 62
     1
 10
37.9999999999997797
 20
169.3238107812146893
 30
-0.0000000000000376
 11
-38.0000000000002274
 21
169.3238107812146893
 31
-0.0000000000000376
210
0.0
220
1.0
230
-0.0000000000000002
  0
LINE
  5
221F
  8
0
  6
VERDECKT
 62
     1
 10
-34.9000000000000909
 20
7.0698575086544242
 30
-0.0000000000000016
 11
-34.9000000000000909
 21
109.6934003354314058
 31
-0.0000000000000244
210
0.0
220
1.0
230
-0.0000000000000002
  0
LINE
  5
2220
  8
0
  6
VERDECKT
 62
     1
 10
34.9000000000000909
 20
7.0698575086544242
 30
-0.0000000000000016
 11
34.9000000000000909
 21
109.6934003354314058
 31
-0.0000000000000244
210
0.0
220
1.0
230
-0.0000000000000002
  0
LINE
  5
2221
  8
0
  6
VERDECKT
 62
     1
 10
-34.2936678383717108
 20
0.1394491883961533
 30
0.0
 11
-34.9000000000000625
 21
7.0698575086544224
 31
-0.0000000000000016
210
0.0
220
1.0
230
-0.0000000000000002
  0
LINE
  5
2222
  8
0
  6
VERDECKT
 62
     1
 10
34.2936678383717108
 20
0.1394491883961533
 30
0.0
 11
34.9000000000000625
 21
7.0698575086544269
 31
-0.0000000000000016
210
0.0
220
1.0
230
-0.0000000000000002
  0
LINE
  5
2223
  8
0
  6
VERDECKT
 62
     1
 10
34.2936678383716682
 20
0.1394491883961564
 30
0.0
 11
35.887579355318401
 21
-0.0000000000001038
 31
0.0
210
0.0
220
1.0
230
-0.0000000000000002
  0
LINE
  5
2224
  8
0
  6
VERDECKT
 62
     1
 10
-34.2936678383716682
 20
0.1394491883961564
 30
0.0
 11
-35.8875793553185076
 21
-0.0000000000001137
 31
0.0
210
0.0
220
1.0
230
-0.0000000000000002
  0
ARC
  5
2225
  8
0
  6
VERDECKT
 62
     1
 10
-44.5000000000004619
 20
109.6934003354312068
 30
0.0
 40
9.6000000000007102
210
0.0
220
-0.0000000000000002
230
-1.0
 50
0.0000000000011959
 51
32.3280641221620115
  0
ARC
  5
2226
  8
0
  6
VERDECKT
 62
     1
 10
44.5000000000008669
 20
109.6934003354312068
 30
0.0
 40
9.6000000000006551
210
0.0
220
-0.0000000000000002
230
-1.0
 50
147.6719358778383082
 51
179.9999999999988916
  0
ARC
  5
2227
  8
0
  6
VERDECKT
 62
     1
 10
-27.5999999999999517
 20
120.3887264174169047
 30
0.0
 40
10.3999999999998103
210
0.0
220
-0.0000000000000002
230
-1.0
 50
179.9999999999984084
 51
212.3280641221616918
  0
ARC
  5
2228
  8
0
  6
VERDECKT
 62
     1
 10
27.6000000000003496
 20
120.3887264174169047
 30
0.0
 40
10.3999999999998707
210
0.0
220
-0.0000000000000002
230
-1.0
 50
327.6719358778378819
 51
0.0000000000015126
  0
LINE
  5
2229
  8
0
  6
VERDECKT
 62
     1
 10
-38.0000000000003411
 20
120.3887264174172032
 30
-0.0000000000000267
 11
-38.0000000000003411
 21
141.3300000000014904
 31
-0.0000000000000314
210
0.0
220
1.0
230
-0.0000000000000002
  0
LINE
  5
222A
  8
0
  6
VERDECKT
 62
     1
 10
37.9999999999998934
 20
120.3887264174172032
 30
-0.0000000000000267
 11
37.9999999999998934
 21
141.3300000000014904
 31
-0.0000000000000314
210
0.0
220
1.0
230
-0.0000000000000002
  0
ARC
  5
222B
  8
0
  6
VERDECKT
 62
     1
 10
-51.5999999999996675
 20
141.3300000000016894
 30
0.0
 40
13.5999999999997794
210
0.0
220
-0.0000000000000002
230
-1.0
 50
359.9999999999993747
 51
21.1831543930307298
  0
ARC
  5
222C
  8
0
  6
VERDECKT
 62
     1
 10
51.6000000000000867
 20
141.3300000000016041
 30
0.0
 40
13.5999999999997492
210
0.0
220
-0.0000000000000002
230
-1.0
 50
158.8168456069691956
 51
180.0000000000003979
  0
ARC
  5
222D
  8
0
  6
VERDECKT
 62
     1
 10
-17.0999999999912013
 20
154.7000000000028876
 30
0.0
 40
23.4000932431343003
210
0.0
220
-0.0000000000000002
230
-1.0
 50
179.8382525687268014
 51
201.1831543930335897
  0
ARC
  5
222E
  8
0
  6
VERDECKT
 62
     1
 10
17.0999999999912902
 20
154.7000000000028876
 30
0.0
 40
23.4000932431346698
210
0.0
220
-0.0000000000000002
230
-1.0
 50
338.8168456069664103
 51
0.1617474312730253
  0
LINE
  5
222F
  8
0
  6
VERDECKT
 62
     1
 10
-40.5000000000002203
 20
154.7660589659253105
 30
-0.0000000000000344
 11
-40.5000000000002203
 21
158.7748883740960935
 31
-0.0000000000000353
210
0.0
220
1.0
230
-0.0000000000000002
  0
LINE
  5
2230
  8
0
  6
VERDECKT
 62
     1
 10
40.4999999999997726
 20
154.7660589659253105
 30
-0.0000000000000344
 11
40.4999999999997726
 21
158.7748883740960935
 31
-0.0000000000000353
210
0.0
220
1.0
230
-0.0000000000000002
  0
ARC
  5
2231
  8
0
  6
VERDECKT
 62
     1
 10
-17.0999999999989889
 20
158.7748883740960082
 30
0.0
 40
23.4000000000007802
210
0.0
220
-0.0000000000000002
230
-1.0
 50
154.9999999999965894
 51
179.9999999999996021
  0
ARC
  5
2232
  8
0
  6
VERDECKT
 62
     1
 10
17.0999999999994508
 20
158.7748883740960082
 30
0.0
 40
23.4000000000007802
210
0.0
220
-0.0000000000000002
230
-1.0
 50
0.0000000000003562
 51
25.0000000000033609
  0
LINE
  5
2233
  8
0
  6
VERDECKT
 62
     1
 10
37.9999999999997797
 20
169.3238107812146893
 30
-0.0000000000000376
 11
38.3076022166567327
 21
168.6641556988298873
 31
-0.0000000000000375
210
0.0
220
1.0
230
-0.0000000000000002
  0
LINE
  5
2234
  8
0
  6
VERDECKT
 62
     1
 10
-38.0000000000002274
 20
169.3238107812146893
 30
-0.0000000000000376
 11
-38.3076022166571875
 21
168.6641556988298873
 31
-0.0000000000000375
210
0.0
220
1.0
230
-0.0000000000000002
  0
LINE
  5
2235
  8
0
  6
VERDECKT
 62
     1
 10
-38.0000000000002416
 20
169.3238107812146893
 30
-0.0000000000000376
 11
-39.4500924592588333
 21
169.9999999999998863
 31
-0.0000000000000377
210
0.0
220
1.0
230
-0.0000000000000002
  0
LINE
  5
2236
  8
0
  6
VERDECKT
 62
     1
 10
37.9999999999997797
 20
169.3238107812146893
 30
-0.0000000000000376
 11
39.4500924592584781
 21
170.0
 31
-0.0000000000000377
210
0.0
220
1.0
230
-0.0000000000000002
  0
ENDBLK
  5
2238
  8
0
  0
ENDSEC
  0
SECTION
  2
ENTITIES
  0
TEXT
  5
8F
  8
VOLL
 10
78.076754716981128
 20
31.025947764705851
 30
0.0
 40
1.8
  1

  7
GREEKS
  0
INSERT
  5
171F
  8
ADSK_ASSOC_ENTITY_BACKUPS
  2
*S0
 10
0.0
 20
0.0
 30
0.0
  0
INSERT
  5
2239
  8
STEMPEL
  2
A$C1A108C32
 10
0.0
 20
0.0
 30
0.0
  0
VIEWPORT
  5
16FD
 67
     1
  8
0
 10
99.3659104451067208
 20
145.4734141332278057
 30
0.0
 40
558.2689876786740797
 41
298.8276420164409046
 68
     1
 69
     1
1001
ACAD
1000
MVIEW
1002
{
1070
    16
1010
0.0
1020
0.0
1030
0.0
1010
0.0
1020
0.0
1030
1.0
1040
0.0
1040
298.8276420164409046
1040
99.3659104451067208
1040
145.4734141332278057
1040
50.0
1040
0.0
1040
0.0
1070
     0
1070
  1500
1070
     1
1070
     1
1070
     0
1070
     0
1070
     0
1070
     0
1040
0.0
1040
0.0
1040
0.0
1040
10.0
1040
10.0
1040
10.0
1040
10.0
1070
     0
1002
{
1002
}
1002
}
  0
ENDSEC
  0
EOF
