  0
SECTION
  2
HEADER
  9
$ACADVER
  1
AC1009
  9
$INSBASE
 10
0.0
 20
0.0
 30
0.0
  9
$EXTMIN
 10
-26.4546354371397001
 20
-0.000396493819153
 30
-0.0051875924753517
  9
$EXTMAX
 10
27.0178861798403886
 20
170.0375231826986067
 30
0.0077821803368465
  9
$LIMMIN
 10
0.0
 20
0.0
  9
$LIMMAX
 10
419.9999999999998863
 20
594.0
  9
$ORTHOMODE
 70
     1
  9
$REGENMODE
 70
     1
  9
$FILLMODE
 70
     1
  9
$QTEXTMODE
 70
     0
  9
$MIRRTEXT
 70
     1
  9
$DRAGMODE
 70
     2
  9
$LTSCALE
 40
20.0
  9
$OSMODE
 70
  2559
  9
$ATTMODE
 70
     1
  9
$TEXTSIZE
 40
3.5
  9
$TRACEWID
 40
0.5
  9
$TEXTSTYLE
  7
STANDARD
  9
$CLAYER
  8
STEMPEL
  9
$CELTYPE
  6
BYLAYER
  9
$CECOLOR
 62
   256
  9
$DIMSCALE
 40
2.0
  9
$DIMASZ
 40
3.5
  9
$DIMEXO
 40
1.0
  9
$DIMDLI
 40
7.0
  9
$DIMRND
 40
0.0
  9
$DIMDLE
 40
0.0
  9
$DIMEXE
 40
1.0
  9
$DIMTP
 40
0.0
  9
$DIMTM
 40
0.0
  9
$DIMTXT
 40
3.5
  9
$DIMCEN
 40
1.5
  9
$DIMTSZ
 40
0.0
  9
$DIMTOL
 70
     0
  9
$DIMLIM
 70
     0
  9
$DIMTIH
 70
     0
  9
$DIMTOH
 70
     0
  9
$DIMSE1
 70
     0
  9
$DIMSE2
 70
     0
  9
$DIMTAD
 70
     1
  9
$DIMZIN
 70
     8
  9
$DIMBLK
  1

  9
$DIMASO
 70
     1
  9
$DIMSHO
 70
     0
  9
$DIMPOST
  1

  9
$DIMAPOST
  1

  9
$DIMALT
 70
     0
  9
$DIMALTD
 70
     2
  9
$DIMALTF
 40
25.3999999999999986
  9
$DIMLFAC
 40
1.0
  9
$DIMTOFL
 70
     1
  9
$DIMTVP
 40
0.0
  9
$DIMTIX
 70
     0
  9
$DIMSOXD
 70
     0
  9
$DIMSAH
 70
     0
  9
$DIMBLK1
  1

  9
$DIMBLK2
  1

  9
$DIMSTYLE
  2
STANDARD
  9
$DIMCLRD
 70
     0
  9
$DIMCLRE
 70
     0
  9
$DIMCLRT
 70
     1
  9
$DIMTFAC
 40
0.5142857142857143
  9
$DIMGAP
 40
1.5
  9
$LUNITS
 70
     2
  9
$LUPREC
 70
     2
  9
$SKETCHINC
 40
1.0
  9
$FILLETRAD
 40
5.0
  9
$AUNITS
 70
     0
  9
$AUPREC
 70
     0
  9
$MENU
  1
ACAD
  9
$ELEVATION
 40
0.0
  9
$PELEVATION
 40
0.0
  9
$THICKNESS
 40
0.0
  9
$LIMCHECK
 70
     0
  9
$BLIPMODE
 70
     0
  9
$CHAMFERA
 40
0.0
  9
$CHAMFERB
 40
0.0
  9
$SKPOLY
 70
     0
  9
$TDCREATE
 40
2455397.8646990740671754
  9
$TDUPDATE
 40
2458904.421435184776783
  9
$TDINDWG
 40
0.5249172917
  9
$TDUSRTIMER
 40
0.5249172917
  9
$USRTIMER
 70
     1
  9
$ANGBASE
 50
0.0
  9
$ANGDIR
 70
     0
  9
$PDMODE
 70
     0
  9
$PDSIZE
 40
0.0
  9
$PLINEWID
 40
0.0
  9
$COORDS
 70
     1
  9
$SPLFRAME
 70
     0
  9
$SPLINETYPE
 70
     6
  9
$SPLINESEGS
 70
     8
  9
$ATTDIA
 70
     1
  9
$ATTREQ
 70
     1
  9
$HANDLING
 70
     1
  9
$HANDSEED
  5
20B8
  9
$SURFTAB1
 70
     6
  9
$SURFTAB2
 70
     6
  9
$SURFTYPE
 70
     6
  9
$SURFU
 70
     6
  9
$SURFV
 70
     6
  9
$UCSNAME
  2

  9
$UCSORG
 10
0.0
 20
0.0
 30
0.0
  9
$UCSXDIR
 10
1.0
 20
0.0
 30
0.0
  9
$UCSYDIR
 10
0.0
 20
1.0
 30
0.0
  9
$PUCSNAME
  2

  9
$PUCSORG
 10
0.0
 20
0.0
 30
0.0
  9
$PUCSXDIR
 10
1.0
 20
0.0
 30
0.0
  9
$PUCSYDIR
 10
0.0
 20
1.0
 30
0.0
  9
$USERI1
 70
     0
  9
$USERI2
 70
     0
  9
$USERI3
 70
     0
  9
$USERI4
 70
     0
  9
$USERI5
 70
     0
  9
$USERR1
 40
0.0
  9
$USERR2
 40
0.0
  9
$USERR3
 40
0.0
  9
$USERR4
 40
0.0
  9
$USERR5
 40
0.0
  9
$WORLDVIEW
 70
     1
  9
$SHADEDGE
 70
     3
  9
$SHADEDIF
 70
    70
  9
$TILEMODE
 70
     1
  9
$MAXACTVP
 70
    16
  9
$PLIMCHECK
 70
     0
  9
$PEXTMIN
 10
1.0000000000000000E+20
 20
1.0000000000000000E+20
 30
1.0000000000000000E+20
  9
$PEXTMAX
 10
-1.0000000000000000E+20
 20
-1.0000000000000000E+20
 30
-1.0000000000000000E+20
  9
$PLIMMIN
 10
-5.7422238260351799
 20
-3.1938127966280181
  9
$PLIMMAX
 10
204.4899740453942911
 20
294.1406338849131998
  9
$UNITMODE
 70
     0
  9
$VISRETAIN
 70
     0
  9
$PLINEGEN
 70
     0
  9
$PSLTSCALE
 70
     0
  0
ENDSEC
  0
SECTION
  2
TABLES
  0
TABLE
  2
VPORT
 70
     1
  0
VPORT
  2
*ACTIVE
 70
     0
 10
0.0
 20
0.0
 11
1.0
 21
1.0
 12
0.2816253713503158
 22
0.0185633444397837
 13
0.0
 23
0.0
 14
1.0
 24
1.0
 15
10.0
 25
10.0
 16
-0.0000000000001013
 26
0.0
 36
456.4375454915054888
 17
0.0
 27
84.9999999999999147
 37
-0.0000000000000189
 40
170.9047230053699877
 41
1.868197278911564
 42
50.0
 43
0.0
 44
0.0
 50
0.0
 51
0.0
 71
     0
 72
  1500
 73
     1
 74
     0
 75
     0
 76
     0
 77
     0
 78
     0
  0
ENDTAB
  0
TABLE
  2
LTYPE
 70
     6
  0
LTYPE
  2
CONTINUOUS
 70
     0
  3
Solid line
 72
    65
 73
     0
 40
0.0
  0
LTYPE
  2
STRICHPUNKT
 70
     0
  3
__ . __ . __ . __ . __ . __ . __ . __ . __ . __
 72
    65
 73
     4
 40
1.0
 49
0.5
 49
-0.25
 49
0.0
 49
-0.25
  0
LTYPE
  2
RAND
 70
     0
  3
__ __ . __ __ . __ __ . __ __ . __ __ . __ __
 72
    65
 73
     6
 40
1.75
 49
0.5
 49
-0.25
 49
0.5
 49
-0.25
 49
0.0
 49
-0.25
  0
LTYPE
  2
VERDECKT
 70
     0
  3
Verdeckt __ __ __ __ __ __ __ __ __ __ __ __ __
 72
    65
 73
     2
 40
0.375
 49
0.25
 49
-0.125
  0
ENDTAB
  0
TABLE
  2
LAYER
 70
    14
  0
LAYER
  2
0
 70
     0
 62
     7
  6
CONTINUOUS
  0
LAYER
  2
VOLL
 70
     0
 62
     1
  6
CONTINUOUS
  0
LAYER
  2
STEMPEL
 70
     0
 62
     3
  6
CONTINUOUS
  0
LAYER
  2
DEFPOINTS
 70
     0
 62
     7
  6
RAND
  0
LAYER
  2
ADSK_ASSOC_ENTITY_BACKUPS
 70
     1
 62
    -7
  6
CONTINUOUS
  0
LAYER
  2
MATERIAL__VERZINKT_
 70
     0
 62
   254
  6
CONTINUOUS
  0
ENDTAB
  0
TABLE
  2
STYLE
 70
     3
  0
STYLE
  2
STANDARD
 70
     0
 40
0.0
 41
0.8
 50
0.0
 71
     0
 42
3.5
  3
simplex.shx
  4

  0
STYLE
  2
GREEKS
 70
     0
 40
0.0
 41
0.8
 50
0.0
 71
     0
 42
2.5
  3
SIMPLEX.shx
  4

  0
STYLE
  2

 70
     1
 40
0.0
 41
1.0
 50
0.0
 71
     0
 42
3.5
  3
ltypeshp.shx
  4

  0
ENDTAB
  0
TABLE
  2
VIEW
 70
     1
  0
ENDTAB
  0
TABLE
  2
UCS
 70
     0
  0
ENDTAB
  0
TABLE
  2
APPID
 70
    22
  0
APPID
  2
ACAD
 70
     0
  0
APPID
  2
ACAD_NAV_VCDISPLAY
 70
     0
  0
APPID
  2
ACAD_STEPID
 70
     0
  0
APPID
  2
ACAECLAYERSTANDARD
 70
     0
  0
APPID
  2
ACCMTRANSPARENCY
 70
     0
  0
APPID
  2
ACAD_PSEXT
 70
     0
  0
APPID
  2
ACAD_EXEMPT_FROM_CAD_STANDARDS
 70
     0
  0
APPID
  2
ACSYNERGY
 70
     0
  0
APPID
  2
SYNERGY_BODY_TBR_ID
 70
     0
  0
APPID
  2
ACAD_VIEW_EDGE_ID
 70
     0
  0
APPID
  2
ACSYNERGYSKETCH
 70
     0
  0
APPID
  2
ACAD_MODELDOC_XFORM
 70
     0
  0
APPID
  2
ACAD_DSTYLE_DIMJAG
 70
     0
  0
APPID
  2
ACAD_DSTYLE_DIMBREAK
 70
     0
  0
APPID
  2
RAK
 70
     0
  0
APPID
  2
ACDBDYNAMICBLOCKGUID
 70
     0
  0
APPID
  2
ACAD_DSTYLE_DIMINSPECT
 70
     0
  0
APPID
  2
PLOTTRANSPARENCY
 70
     0
  0
APPID
  2
ACAD_DSTYLE_DIMTALN
 70
     0
  0
APPID
  2
ACADANNOPO
 70
     0
  0
APPID
  2
ACAD_MLEADERVER
 70
     0
  0
APPID
  2
AcDbAttr
 70
     0
  0
ENDTAB
  0
TABLE
  2
DIMSTYLE
 70
     2
  0
DIMSTYLE
  2
STANDARD
 70
     0
  3

  4

  5

  6

  7

 40
1.0
 41
0.18
 42
0.0625
 43
0.38
 44
0.18
 45
0.0
 46
0.0
 47
0.0
 48
0.0
140
0.18
141
0.09
142
0.0
143
25.3999999999999986
144
1.0
145
0.0
146
1.0
147
0.09
 71
     0
 72
     0
 73
     1
 74
     1
 75
     0
 76
     0
 77
     0
 78
     0
170
     0
171
     2
172
     0
173
     0
174
     0
175
     0
176
     0
177
     0
178
     0
  0
ENDTAB
  0
ENDSEC
  0
SECTION
  2
BLOCKS
  0
BLOCK
  8
0
  2
$MODEL_SPACE
 70
     0
 10
0.0
 20
0.0
 30
0.0
  3
$MODEL_SPACE
  1

  0
ENDBLK
  5
36
  8
0
  0
BLOCK
 67
     1
  8
0
  2
$PAPER_SPACE
 70
     0
 10
0.0
 20
0.0
 30
0.0
  3
$PAPER_SPACE
  1

  0
ENDBLK
  5
34
 67
     1
  8
0
  0
BLOCK
  8
0
  2
*S0
 70
     1
 10
0.0
 20
0.0
 30
0.0
  3
*S0
  1

  0
ENDBLK
  5
171D
  8
0
  0
BLOCK
  8
0
  2
A$C11AD6C8C
 70
     0
 10
0.0
 20
0.0
 30
0.0
  3
A$C11AD6C8C
  1

  0
LINE
  5
202E
  8
0
  6
CONTINUOUS
 62
     3
 10
20.5625566823702606
 20
-0.0000000000001137
 30
0.0
 11
-20.5625566823703707
 21
-0.0000000000001137
 31
0.0
210
0.0
220
1.0
230
-0.0000000000000002
  0
LINE
  5
202F
  8
0
  6
CONTINUOUS
 62
     3
 10
-23.8479577973838595
 20
169.9999999999998863
 30
-0.0000000000000377
 11
23.8479577973837387
 21
169.9999999999998863
 31
-0.0000000000000377
210
0.0
220
1.0
230
-0.0000000000000002
  0
ARC
  5
2030
  8
0
  6
CONTINUOUS
 62
     3
 10
-16.0
 20
5.218304714542449
 30
0.0
 40
4.9999999999999361
210
0.0
220
-0.0000000000000002
230
-1.0
 50
179.9999999999998863
 51
185.0000000000009948
  0
ARC
  5
2031
  8
0
  6
CONTINUOUS
 62
     3
 10
16.0000000000001315
 20
5.2183047145424508
 30
0.0
 40
4.9999999999999254
210
0.0
220
-0.0000000000000002
230
-1.0
 50
354.99999999999892
 51
0.0000000000000509
  0
LINE
  5
2032
  8
0
  6
CONTINUOUS
 62
     3
 10
-20.5625566823703707
 20
-0.0000000000001141
 30
0.0
 11
-20.9809734904587799
 21
4.7825260008040713
 31
-0.0000000000000011
210
0.0
220
1.0
230
-0.0000000000000002
  0
LINE
  5
2033
  8
0
  6
CONTINUOUS
 62
     3
 10
20.5625566823702499
 20
-0.0000000000001141
 30
0.0
 11
20.9809734904586591
 21
4.7825260008040713
 31
-0.0000000000000011
210
0.0
220
1.0
230
-0.0000000000000002
  0
LINE
  5
2034
  8
0
  6
CONTINUOUS
 62
     3
 10
-21.0000000000000604
 20
5.2183047145424561
 30
-0.0000000000000012
 11
-21.0000000000000604
 21
135.4944463274075872
 31
-0.0000000000000301
210
0.0
220
1.0
230
-0.0000000000000002
  0
LINE
  5
2035
  8
0
  6
CONTINUOUS
 62
     3
 10
20.9999999999999396
 20
5.2183047145424561
 30
-0.0000000000000012
 11
20.9999999999999396
 21
135.4944463274075872
 31
-0.0000000000000301
210
0.0
220
1.0
230
-0.0000000000000002
  0
ARC
  5
2036
  8
0
  6
CONTINUOUS
 62
     3
 10
27.0000000000004796
 20
135.4944463274075019
 30
0.0
 40
6.0000000000003721
210
0.0
220
-0.0000000000000002
230
-1.0
 50
144.3409123038626092
 51
179.9999999999988916
  0
ARC
  5
2037
  8
0
  6
CONTINUOUS
 62
     3
 10
-27.0000000000003695
 20
135.4944463274075019
 30
0.0
 40
6.0000000000003748
210
0.0
220
-0.0000000000000002
230
-1.0
 50
0.0000000000010941
 51
35.6590876961374406
  0
ARC
  5
2038
  8
0
  6
CONTINUOUS
 62
     3
 10
14.0000000000000906
 20
144.8218253804965059
 30
0.0
 40
10.0000000000000302
210
0.0
220
-0.0000000000000002
230
-1.0
 50
324.3409123038607049
 51
359.9999999999992042
  0
ARC
  5
2039
  8
0
  6
CONTINUOUS
 62
     3
 10
-13.9999999999999698
 20
144.8218253804965059
 30
0.0
 40
10.0000000000000195
210
0.0
220
-0.0000000000000002
230
-1.0
 50
180.0000000000007105
 51
215.6590876961392098
  0
LINE
  5
203A
  8
0
  6
CONTINUOUS
 62
     3
 10
24.0
 20
148.9999999999998863
 30
-0.0000000000000331
 11
24.0
 21
144.8218253804963069
 31
-0.0000000000000322
210
0.0
220
1.0
230
-0.0000000000000002
  0
LINE
  5
203B
  8
0
  6
CONTINUOUS
 62
     3
 10
-24.0000000000001101
 20
148.9999999999998863
 30
-0.0000000000000331
 11
-24.0000000000001101
 21
144.8218253804963069
 31
-0.0000000000000322
210
0.0
220
1.0
230
-0.0000000000000002
  0
ARC
  5
203C
  8
0
  6
CONTINUOUS
 62
     3
 10
34.0000000000016485
 20
148.9999999999996874
 30
0.0
 40
10.0000000000015206
210
0.0
220
-0.0000000000000002
230
-1.0
 50
161.8060294016187015
 51
179.9999999999990052
  0
ARC
  5
203D
  8
0
  6
CONTINUOUS
 62
     3
 10
-34.0000000000015419
 20
148.9999999999996874
 30
0.0
 40
10.0000000000015294
210
0.0
220
-0.0000000000000002
230
-1.0
 50
0.0000000000009796
 51
18.1939705983812701
  0
ARC
  5
203E
  8
0
  6
CONTINUOUS
 62
     3
 10
5.4970507576884202
 20
158.3679693176387957
 30
0.0
 40
20.002949265797529
210
0.0
220
-0.0000000000000002
230
-1.0
 50
341.8060294016170815
 51
359.9972235189420076
  0
ARC
  5
203F
  8
0
  6
CONTINUOUS
 62
     3
 10
-5.4970507576887178
 20
158.3679693176387104
 30
0.0
 40
20.0029492657971204
210
0.0
220
-0.0000000000000002
230
-1.0
 50
180.0027764810577082
 51
198.1939705983828901
  0
LINE
  5
2040
  8
0
  6
CONTINUOUS
 62
     3
 10
25.4999999999998899
 20
162.8036016475523127
 30
-0.0000000000000361
 11
25.4999999999998899
 21
158.3669999999997913
 31
-0.0000000000000352
210
0.0
220
1.0
230
-0.0000000000000002
  0
LINE
  5
2041
  8
0
  6
CONTINUOUS
 62
     3
 10
-25.5
 20
162.8036016475523127
 30
-0.0000000000000361
 11
-25.5
 21
158.3669999999997913
 31
-0.0000000000000352
210
0.0
220
1.0
230
-0.0000000000000002
  0
ARC
  5
2042
  8
0
  6
CONTINUOUS
 62
     3
 10
9.0000000000004352
 20
162.8036016475523979
 30
0.0
 40
16.4999999999996199
210
0.0
220
-0.0000000000000002
230
-1.0
 50
359.9999999999997158
 51
25.85819699173571
  0
ARC
  5
2043
  8
0
  6
CONTINUOUS
 62
     3
 10
-9.0000000000003233
 20
162.8036016475523979
 30
0.0
 40
16.4999999999996199
210
0.0
220
-0.0000000000000002
230
-1.0
 50
154.1418030082641906
 51
180.000000000000199
  0
LINE
  5
2044
  8
0
  6
VERDECKT
 62
     1
 10
19.0682646352327616
 20
0.1307336141214251
 30
0.0
 11
-19.0682646352328788
 21
0.1307336141214251
 31
0.0
210
0.0
220
1.0
230
-0.0000000000000002
  0
LINE
  5
2045
  8
0
  6
VERDECKT
 62
     1
 10
-22.4981434521671417
 20
169.3457819679591978
 30
-0.0000000000000376
 11
22.4981434521670316
 21
169.3457819679591978
 31
-0.0000000000000376
210
0.0
220
1.0
230
-0.0000000000000002
  0
LINE
  5
2046
  8
0
  6
VERDECKT
 62
     1
 10
-19.5000000000000604
 20
5.0654914143646579
 30
-0.0000000000000011
 11
-19.5000000000000604
 21
135.4944463274075872
 31
-0.0000000000000301
210
0.0
220
1.0
230
-0.0000000000000002
  0
LINE
  5
2047
  8
0
  6
VERDECKT
 62
     1
 10
19.4999999999999396
 20
5.0654914143646579
 30
-0.0000000000000011
 11
19.4999999999999396
 21
135.4944463274075872
 31
-0.0000000000000301
210
0.0
220
1.0
230
-0.0000000000000002
  0
LINE
  5
2048
  8
0
  6
VERDECKT
 62
     1
 10
-19.0682646352329286
 20
0.1307336141214197
 30
0.0
 11
-19.5000000000001101
 21
5.0654914143646526
 31
-0.0000000000000011
210
0.0
220
1.0
230
-0.0000000000000002
  0
LINE
  5
2049
  8
0
  6
VERDECKT
 62
     1
 10
19.0682646352328184
 20
0.1307336141214197
 30
0.0
 11
19.5
 21
5.0654914143646526
 31
-0.0000000000000011
210
0.0
220
1.0
230
-0.0000000000000002
  0
LINE
  5
204A
  8
0
  6
VERDECKT
 62
     1
 10
19.0682646352327616
 20
0.1307336141213919
 30
0.0
 11
20.5625566823702499
 21
-0.0000000000001468
 31
0.0
210
0.0
220
1.0
230
-0.0000000000000002
  0
LINE
  5
204B
  8
0
  6
VERDECKT
 62
     1
 10
-19.0682646352328717
 20
0.1307336141213919
 30
0.0
 11
-20.5625566823703707
 21
-0.0000000000001468
 31
0.0
210
0.0
220
1.0
230
-0.0000000000000002
  0
LINE
  5
204C
  8
0
  6
VERDECKT
 62
     1
 10
-22.4981434521671311
 20
169.3457819679591978
 30
-0.0000000000000376
 11
-23.8479577973838701
 21
169.9999999999998863
 31
-0.0000000000000377
210
0.0
220
1.0
230
-0.0000000000000002
  0
LINE
  5
204D
  8
0
  6
VERDECKT
 62
     1
 10
22.4981434521670209
 20
169.3457819679591978
 30
-0.0000000000000376
 11
23.8479577973837493
 21
169.9999999999998863
 31
-0.0000000000000377
210
0.0
220
1.0
230
-0.0000000000000002
  0
ARC
  5
204E
  8
0
  6
VERDECKT
 62
     1
 10
9.0000000000009308
 20
162.8036016475525969
 30
0.0
 40
14.9999999999991207
210
0.0
220
-0.0000000000000002
230
-1.0
 50
0.0
 51
25.8581969917368006
  0
ARC
  5
204F
  8
0
  6
VERDECKT
 62
     1
 10
-9.0000000000006324
 20
162.8036016475525116
 30
0.0
 40
14.9999999999993108
210
0.0
220
-0.0000000000000002
230
-1.0
 50
154.1418030082641906
 51
180.0000000000007105
  0
LINE
  5
2050
  8
0
  6
VERDECKT
 62
     1
 10
23.9999999999999503
 20
162.8036016475523127
 30
-0.0000000000000361
 11
23.9999999999999503
 21
158.3670558145639973
 31
-0.0000000000000352
210
0.0
220
1.0
230
-0.0000000000000002
  0
LINE
  5
2051
  8
0
  6
VERDECKT
 62
     1
 10
-24.0000000000000604
 20
162.8036016475523127
 30
-0.0000000000000361
 11
-24.0000000000000604
 21
158.3670558145639973
 31
-0.0000000000000352
210
0.0
220
1.0
230
-0.0000000000000002
  0
ARC
  5
2052
  8
0
  6
VERDECKT
 62
     1
 10
5.4967341513480434
 20
158.3680200177759048
 30
0.0
 40
18.5032658737742715
210
0.0
220
-0.0000000000000002
230
-1.0
 50
341.8061262022011988
 51
359.9970143230366943
  0
ARC
  5
2053
  8
0
  6
VERDECKT
 62
     1
 10
-5.4967341513480683
 20
158.3680200177759048
 30
0.0
 40
18.5032658737741187
210
0.0
220
-0.0000000000000002
230
-1.0
 50
180.0029856769631067
 51
198.1938737977988865
  0
ARC
  5
2054
  8
0
  6
VERDECKT
 62
     1
 10
33.9999999999992681
 20
149.0
 30
0.0
 40
11.4999999999991491
210
0.0
220
-0.0000000000000002
230
-1.0
 50
161.806126202200204
 51
180.0000000000005116
  0
ARC
  5
2055
  8
0
  6
VERDECKT
 62
     1
 10
-33.9999999999991473
 20
149.0
 30
0.0
 40
11.4999999999991491
210
0.0
220
-0.0000000000000002
230
-1.0
 50
359.9999999999993747
 51
18.1938737977998315
  0
LINE
  5
2056
  8
0
  6
VERDECKT
 62
     1
 10
22.5
 20
148.9999999999998863
 30
-0.0000000000000331
 11
22.5
 21
144.8218253804963069
 31
-0.0000000000000322
210
0.0
220
1.0
230
-0.0000000000000002
  0
LINE
  5
2057
  8
0
  6
VERDECKT
 62
     1
 10
-22.5000000000001101
 20
148.9999999999998863
 30
-0.0000000000000331
 11
-22.5000000000001101
 21
144.8218253804963069
 31
-0.0000000000000322
210
0.0
220
1.0
230
-0.0000000000000002
  0
ARC
  5
2058
  8
0
  6
VERDECKT
 62
     1
 10
14.0000000000008207
 20
144.821825380496108
 30
0.0
 40
8.4999999999993285
210
0.0
220
-0.0000000000000002
230
-1.0
 50
324.3409123038591133
 51
0.0000000000017302
  0
ARC
  5
2059
  8
0
  6
VERDECKT
 62
     1
 10
-14.0000000000006697
 20
144.821825380496108
 30
0.0
 40
8.4999999999993676
210
0.0
220
-0.0000000000000002
230
-1.0
 50
179.9999999999984084
 51
215.6590876961408867
  0
ARC
  5
205A
  8
0
  6
VERDECKT
 62
     1
 10
27.0000000000005507
 20
135.494446327407303
 30
0.0
 40
7.5000000000004361
210
0.0
220
-0.0000000000000002
230
-1.0
 50
144.3409123038630071
 51
179.9999999999982094
  0
ARC
  5
205B
  8
0
  6
VERDECKT
 62
     1
 10
-27.0000000000004405
 20
135.494446327407303
 30
0.0
 40
7.5000000000004317
210
0.0
220
-0.0000000000000002
230
-1.0
 50
0.0
 51
35.6590876961352521
  0
ENDBLK
  5
205D
  8
0
  0
ENDSEC
  0
SECTION
  2
ENTITIES
  0
TEXT
  5
8F
  8
VOLL
 10
78.076754716981128
 20
31.025947764705851
 30
0.0
 40
1.8
  1

  7
GREEKS
  0
INSERT
  5
171F
  8
ADSK_ASSOC_ENTITY_BACKUPS
  2
*S0
 10
0.0
 20
0.0
 30
0.0
  0
INSERT
  5
205E
  8
STEMPEL
  2
A$C11AD6C8C
 10
0.0
 20
0.0
 30
0.0
  0
VIEWPORT
  5
16FD
 67
     1
  8
0
 10
99.3738751096795454
 20
145.4734105441426095
 30
0.0
 40
558.3110749268190602
 41
298.8501702839960785
 68
     1
 69
     1
1001
ACAD
1000
MVIEW
1002
{
1070
    16
1010
0.0
1020
0.0
1030
0.0
1010
0.0
1020
0.0
1030
1.0
1040
0.0
1040
298.8501702839960785
1040
99.3738751096795454
1040
145.4734105441426095
1040
50.0
1040
0.0
1040
0.0
1070
     0
1070
  1500
1070
     1
1070
     1
1070
     0
1070
     0
1070
     0
1070
     0
1040
0.0
1040
0.0
1040
0.0
1040
10.0
1040
10.0
1040
10.0
1040
10.0
1070
     0
1002
{
1002
}
1002
}
  0
ENDSEC
  0
EOF
