  0
SECTION
  2
HEADER
  9
$ACADVER
  1
AC1009
  9
$INSBASE
 10
0.0
 20
0.0
 30
0.0
  9
$EXTMIN
 10
170.2835607895688952
 20
-1011.9902679504409662
 30
-30.8129527440523283
  9
$EXTMAX
 10
221.2835608048987979
 20
-11.9902679504407601
 30
-30.8129527440521116
  9
$LIMMIN
 10
0.0
 20
0.0
  9
$LIMMAX
 10
210.0
 20
297.0
  9
$ORTHOMODE
 70
     0
  9
$REGENMODE
 70
     1
  9
$FILLMODE
 70
     1
  9
$QTEXTMODE
 70
     0
  9
$MIRRTEXT
 70
     1
  9
$DRAGMODE
 70
     2
  9
$LTSCALE
 40
10.0
  9
$OSMODE
 70
  2495
  9
$ATTMODE
 70
     1
  9
$TEXTSIZE
 40
3.5
  9
$TRACEWID
 40
0.5
  9
$TEXTSTYLE
  7
STANDARD
  9
$CLAYER
  8
STEMPEL
  9
$CELTYPE
  6
BYLAYER
  9
$CECOLOR
 62
   256
  9
$DIMSCALE
 40
1.0
  9
$DIMASZ
 40
3.5
  9
$DIMEXO
 40
1.0
  9
$DIMDLI
 40
7.0
  9
$DIMRND
 40
0.0
  9
$DIMDLE
 40
0.0
  9
$DIMEXE
 40
1.0
  9
$DIMTP
 40
0.0
  9
$DIMTM
 40
0.0
  9
$DIMTXT
 40
3.5
  9
$DIMCEN
 40
1.5
  9
$DIMTSZ
 40
0.0
  9
$DIMTOL
 70
     0
  9
$DIMLIM
 70
     0
  9
$DIMTIH
 70
     0
  9
$DIMTOH
 70
     0
  9
$DIMSE1
 70
     0
  9
$DIMSE2
 70
     0
  9
$DIMTAD
 70
     1
  9
$DIMZIN
 70
     8
  9
$DIMBLK
  1

  9
$DIMASO
 70
     1
  9
$DIMSHO
 70
     0
  9
$DIMPOST
  1

  9
$DIMAPOST
  1

  9
$DIMALT
 70
     0
  9
$DIMALTD
 70
     2
  9
$DIMALTF
 40
25.3999999999999986
  9
$DIMLFAC
 40
1.0
  9
$DIMTOFL
 70
     1
  9
$DIMTVP
 40
0.0
  9
$DIMTIX
 70
     0
  9
$DIMSOXD
 70
     0
  9
$DIMSAH
 70
     0
  9
$DIMBLK1
  1

  9
$DIMBLK2
  1

  9
$DIMSTYLE
  2
STANDARD
  9
$DIMCLRD
 70
     0
  9
$DIMCLRE
 70
     0
  9
$DIMCLRT
 70
     1
  9
$DIMTFAC
 40
0.5
  9
$DIMGAP
 40
1.5
  9
$LUNITS
 70
     2
  9
$LUPREC
 70
     2
  9
$SKETCHINC
 40
1.0
  9
$FILLETRAD
 40
15.0
  9
$AUNITS
 70
     0
  9
$AUPREC
 70
     0
  9
$MENU
  1
ACAD
  9
$ELEVATION
 40
0.0
  9
$PELEVATION
 40
0.0
  9
$THICKNESS
 40
0.0
  9
$LIMCHECK
 70
     0
  9
$BLIPMODE
 70
     0
  9
$CHAMFERA
 40
2.0
  9
$CHAMFERB
 40
2.0
  9
$SKPOLY
 70
     0
  9
$TDCREATE
 40
2455397.8646990740671754
  9
$TDUPDATE
 40
2459396.5298032411374152
  9
$TDINDWG
 40
0.1908952778
  9
$TDUSRTIMER
 40
0.1908952778
  9
$USRTIMER
 70
     1
  9
$ANGBASE
 50
0.0
  9
$ANGDIR
 70
     0
  9
$PDMODE
 70
     0
  9
$PDSIZE
 40
0.0
  9
$PLINEWID
 40
0.0
  9
$COORDS
 70
     1
  9
$SPLFRAME
 70
     0
  9
$SPLINETYPE
 70
     6
  9
$SPLINESEGS
 70
     8
  9
$ATTDIA
 70
     1
  9
$ATTREQ
 70
     1
  9
$HANDLING
 70
     1
  9
$HANDSEED
  5
151D
  9
$SURFTAB1
 70
     6
  9
$SURFTAB2
 70
     6
  9
$SURFTYPE
 70
     6
  9
$SURFU
 70
     6
  9
$SURFV
 70
     6
  9
$UCSNAME
  2

  9
$UCSORG
 10
0.0
 20
0.0
 30
0.0
  9
$UCSXDIR
 10
1.0
 20
0.0
 30
0.0
  9
$UCSYDIR
 10
0.0
 20
1.0
 30
0.0
  9
$PUCSNAME
  2

  9
$PUCSORG
 10
0.0
 20
0.0
 30
0.0
  9
$PUCSXDIR
 10
1.0
 20
0.0
 30
0.0
  9
$PUCSYDIR
 10
0.0
 20
1.0
 30
0.0
  9
$USERI1
 70
     0
  9
$USERI2
 70
     0
  9
$USERI3
 70
     0
  9
$USERI4
 70
     0
  9
$USERI5
 70
     0
  9
$USERR1
 40
0.0
  9
$USERR2
 40
0.0
  9
$USERR3
 40
0.0
  9
$USERR4
 40
0.0
  9
$USERR5
 40
0.0
  9
$WORLDVIEW
 70
     1
  9
$SHADEDGE
 70
     3
  9
$SHADEDIF
 70
    70
  9
$TILEMODE
 70
     1
  9
$MAXACTVP
 70
    16
  9
$PLIMCHECK
 70
     0
  9
$PEXTMIN
 10
1.0000000000000000E+20
 20
1.0000000000000000E+20
 30
1.0000000000000000E+20
  9
$PEXTMAX
 10
-1.0000000000000000E+20
 20
-1.0000000000000000E+20
 30
-1.0000000000000000E+20
  9
$PLIMMIN
 10
-0.0674642631973264
 20
-0.0511601294987543
  9
$PLIMMAX
 10
209.9325357368026914
 20
296.9488398705012742
  9
$UNITMODE
 70
     0
  9
$VISRETAIN
 70
     0
  9
$PLINEGEN
 70
     0
  9
$PSLTSCALE
 70
     0
  0
ENDSEC
  0
SECTION
  2
TABLES
  0
TABLE
  2
VPORT
 70
     1
  0
VPORT
  2
*ACTIVE
 70
     0
 10
0.0
 20
0.0
 11
1.0
 21
1.0
 12
0.3501261122863752
 22
-0.0000079074052906
 13
0.0
 23
0.0
 14
1.0
 24
1.0
 15
10.0
 25
10.0
 16
-0.00000000000054
 26
0.0
 36
2491.2416686984888656
 17
195.4334346849474002
 27
-511.9902600430356188
 37
-15.4064763720261499
 40
1007.1513706793799656
 41
1.7852028639618129
 42
50.0
 43
0.0
 44
0.0
 50
0.0
 51
0.0
 71
     0
 72
  1500
 73
     1
 74
     0
 75
     0
 76
     0
 77
     0
 78
     0
  0
ENDTAB
  0
TABLE
  2
LTYPE
 70
     5
  0
LTYPE
  2
CONTINUOUS
 70
     0
  3
Solid line
 72
    65
 73
     0
 40
0.0
  0
LTYPE
  2
PHANTOM2
 70
     0
  3
Phantom (.5x) ___ _ _ ___ _ _ ___ _ _ ___ _ _
 72
    65
 73
     6
 40
1.25
 49
0.625
 49
-0.125
 49
0.125
 49
-0.125
 49
0.125
 49
-0.125
  0
LTYPE
  2
VERDECKT
 70
     0
  3
Verdeckt __ __ __ __ __ __ __ __ __ __ __ __ __
 72
    65
 73
     2
 40
0.375
 49
0.25
 49
-0.125
  0
ENDTAB
  0
TABLE
  2
LAYER
 70
    12
  0
LAYER
  2
0
 70
     0
 62
     7
  6
CONTINUOUS
  0
LAYER
  2
VOLL
 70
     0
 62
     1
  6
CONTINUOUS
  0
LAYER
  2
STEMPEL
 70
     0
 62
     3
  6
CONTINUOUS
  0
LAYER
  2
DEFPOINTS
 70
     0
 62
     7
  6
CONTINUOUS
  0
LAYER
  2
ADSK_ASSOC_ENTITY_BACKUPS
 70
     1
 62
    -7
  6
CONTINUOUS
  0
ENDTAB
  0
TABLE
  2
STYLE
 70
     5
  0
STYLE
  2
STANDARD
 70
     0
 40
0.0
 41
0.8
 50
0.0
 71
     0
 42
3.5
  3
simplex.shx
  4

  0
STYLE
  2
GREEKS
 70
     0
 40
0.0
 41
0.8
 50
0.0
 71
     0
 42
2.5
  3
SIMPLEX.shx
  4

  0
ENDTAB
  0
TABLE
  2
VIEW
 70
     1
  0
ENDTAB
  0
TABLE
  2
UCS
 70
     0
  0
ENDTAB
  0
TABLE
  2
APPID
 70
    22
  0
APPID
  2
ACAD
 70
     0
  0
APPID
  2
ACAD_NAV_VCDISPLAY
 70
     0
  0
APPID
  2
ACAD_MLEADERVER
 70
     0
  0
APPID
  2
ACAD_EXEMPT_FROM_CAD_STANDARDS
 70
     0
  0
APPID
  2
ACAD_PSEXT
 70
     0
  0
APPID
  2
ACAECLAYERSTANDARD
 70
     0
  0
APPID
  2
ACAUTHENVIRON
 70
     0
  0
APPID
  2
ACCMTRANSPARENCY
 70
     0
  0
APPID
  2
ACAD_STEPID
 70
     0
  0
APPID
  2
ACSYNERGY
 70
     0
  0
APPID
  2
SYNERGY_BODY_TBR_ID
 70
     0
  0
APPID
  2
ACAD_VIEW_EDGE_ID
 70
     0
  0
APPID
  2
ACSYNERGYSKETCH
 70
     0
  0
APPID
  2
ACAD_MODELDOC_XFORM
 70
     0
  0
APPID
  2
ACAD_DSTYLE_DIMJAG
 70
     0
  0
APPID
  2
ACAD_DSTYLE_DIMTALN
 70
     0
  0
APPID
  2
ACADANNOMONITORALERTICONDI
 70
     0
  0
APPID
  2
ACAD_DIMASSOC_CALC_DIMLFAC
 70
     0
  0
APPID
  2
ACAD_DIMASSOC_DIMLFAC
 70
     0
  0
APPID
  2
ACAD_DIMASSOC_OVERRIDDEN_D
 70
     0
  0
APPID
  2
ACAD_DSTYLE_DIMRADIAL_EXTENSION
 70
     0
  0
APPID
  2
AcDbAttr
 70
     0
  0
ENDTAB
  0
TABLE
  2
DIMSTYLE
 70
     3
  0
DIMSTYLE
  2
STANDARD
 70
     0
  3

  4

  5

  6

  7

 40
1.0
 41
0.18
 42
0.0625
 43
0.38
 44
0.18
 45
0.0
 46
0.0
 47
0.0
 48
0.0
140
0.18
141
0.09
142
0.0
143
25.3999999999999986
144
1.0
145
0.0
146
1.0
147
0.09
 71
     0
 72
     0
 73
     1
 74
     1
 75
     0
 76
     0
 77
     0
 78
     0
170
     0
171
     2
172
     0
173
     0
174
     0
175
     0
176
     0
177
     0
178
     0
  0
ENDTAB
  0
ENDSEC
  0
SECTION
  2
BLOCKS
  0
BLOCK
  8
0
  2
$MODEL_SPACE
 70
     0
 10
0.0
 20
0.0
 30
0.0
  3
$MODEL_SPACE
  1

  0
ENDBLK
  5
36
  8
0
  0
BLOCK
 67
     1
  8
0
  2
$PAPER_SPACE
 70
     0
 10
0.0
 20
0.0
 30
0.0
  3
$PAPER_SPACE
  1

  0
ENDBLK
  5
34
 67
     1
  8
0
  0
BLOCK
  8
0
  2
*S2
 70
     1
 10
0.0
 20
0.0
 30
0.0
  3
*S2
  1

  0
ENDBLK
  5
B3A
  8
0
  0
BLOCK
  8
0
  2
A$C56C89DA7
 70
     0
 10
0.0
 20
0.0
 30
0.0
  3
A$C56C89DA7
  1

  0
LINE
  5
1476
  8
0
 10
112.622518919569103
 20
35.7764126858564993
 30
-0.0000000000000079
 11
160.9177249202066946
 21
35.7764126858564993
 31
-0.0000000000000079
210
0.0
220
1.0
230
-0.0000000000000002
  0
LINE
  5
1477
  8
0
 10
160.9177249202066946
 20
-964.223587314143515
 30
0.0000000000002141
 11
112.622518919569103
 21
-964.223587314143515
 31
0.0000000000002141
210
0.0
220
1.0
230
-0.0000000000000002
  0
ARC
  5
1478
  8
0
 10
-127.7676891742397061
 20
29.2347352616933307
 30
0.0
 40
16.4975672620167018
210
0.0
220
-0.0000000000000002
230
-1.0
 50
359.9982534496202788
 51
23.3610410950192886
  0
ARC
  5
1479
  8
0
 10
-145.7725546655362052
 20
29.2347352616934018
 30
0.0
 40
16.4975672620166094
210
0.0
220
-0.0000000000000002
230
-1.0
 50
156.6389589049809103
 51
180.0017465503798064
  0
LINE
  5
147A
  8
0
 10
111.2702771036226039
 20
24.1434126858571396
 30
-0.0000000000000054
 11
111.2701219198878988
 21
29.2342323654485305
 31
-0.0000000000000065
210
0.0
220
1.0
230
-0.0000000000000002
  0
LINE
  5
147B
  8
0
 10
162.2699667361532079
 20
24.1434126858571396
 30
-0.0000000000000054
 11
162.270121919887913
 21
29.2342323654485305
 31
-0.0000000000000065
210
0.0
220
1.0
230
-0.0000000000000002
  0
ARC
  5
147C
  8
0
 10
-131.2701219198771128
 20
24.1434126858553313
 30
0.0
 40
19.9998448162544804
210
0.0
220
-0.0000000000000002
230
-1.0
 50
341.8060294016119087
 51
0.0000000000051907
  0
ARC
  5
147D
  8
0
 10
-142.2701219198970932
 20
24.143412685855651
 30
0.0
 40
19.9998448162561395
210
0.0
220
-0.0000000000000002
230
-1.0
 50
179.9999999999957083
 51
198.1939705983874092
  0
ARC
  5
147E
  8
0
 10
-102.7701219198887941
 20
14.7764126858571707
 30
0.0
 40
9.9999999999991473
210
0.0
220
-0.0000000000000002
230
-1.0
 50
161.8060294016119087
 51
180.0000000000005969
  0
ARC
  5
147F
  8
0
 10
-170.7701219198872025
 20
14.7764126858571707
 30
0.0
 40
9.9999999999992042
210
0.0
220
-0.0000000000000002
230
-1.0
 50
359.9999999999993179
 51
18.1939705983880415
  0
LINE
  5
1480
  8
0
 10
160.7701219198879983
 20
14.7764126858570606
 30
-0.0000000000000033
 11
160.7701219198879983
 21
10.5982380663534705
 31
-0.0000000000000024
210
0.0
220
1.0
230
-0.0000000000000002
  0
LINE
  5
1481
  8
0
 10
112.7701219198878988
 20
14.7764126858570606
 30
-0.0000000000000033
 11
112.7701219198878988
 21
10.5982380663534705
 31
-0.0000000000000024
210
0.0
220
1.0
230
-0.0000000000000002
  0
ARC
  5
1482
  8
0
 10
-122.7701219198885951
 20
10.5982380663538596
 30
0.0
 40
10.00000000000081
210
0.0
220
-0.0000000000000002
230
-1.0
 50
324.3409123038618986
 51
359.9999999999977831
  0
ARC
  5
1483
  8
0
 10
-150.7701219198872877
 20
10.5982380663538205
 30
0.0
 40
10.0000000000007692
210
0.0
220
-0.0000000000000002
230
-1.0
 50
180.0000000000017906
 51
215.6590876961379024
  0
ARC
  5
1484
  8
0
 10
-109.7701219198877993
 20
1.2708590132647251
 30
0.0
 40
6.0000000000000551
210
0.0
220
-0.0000000000000002
230
-1.0
 50
144.3409123038620976
 51
180.0
  0
ARC
  5
1485
  8
0
 10
-163.7701219198879983
 20
1.270859013264741
 30
0.0
 40
5.9999999999999432
210
0.0
220
-0.0000000000000002
230
-1.0
 50
359.9999999999997726
 51
35.6590876961384708
  0
ARC
  5
1486
  8
0
 10
-145.7725546655364042
 20
-957.6819098899803748
 30
0.0
 40
16.4975672620164211
210
0.0
220
-0.0000000000000002
230
-1.0
 50
179.9982534496203073
 51
203.3610410950192033
  0
ARC
  5
1487
  8
0
 10
-127.767689174239095
 20
-957.6819098899806022
 30
0.0
 40
16.4975672620161298
210
0.0
220
-0.0000000000000002
230
-1.0
 50
336.6389589049804272
 51
0.0017465503801236
  0
LINE
  5
1488
  8
0
 10
162.2699667361532079
 20
-952.5905873141442726
 30
0.0000000000002115
 11
162.270121919887913
 21
-957.6814069937355498
 31
0.0000000000002126
210
0.0
220
1.0
230
-0.0000000000000002
  0
LINE
  5
1489
  8
0
 10
111.2702771036226039
 20
-952.5905873141442726
 30
0.0000000000002115
 11
111.2701219198878988
 21
-957.6814069937355498
 31
0.0000000000002126
210
0.0
220
1.0
230
-0.0000000000000002
  0
ARC
  5
148A
  8
0
 10
-142.2701219198989122
 20
-952.5905873141423399
 30
0.0
 40
19.9998448162543383
210
0.0
220
-0.0000000000000002
230
-1.0
 50
161.806029401611795
 51
180.0000000000055138
  0
ARC
  5
148B
  8
0
 10
-131.270121919877198
 20
-952.5905873141423399
 30
0.0
 40
19.9998448162545905
210
0.0
220
-0.0000000000000002
230
-1.0
 50
359.9999999999948272
 51
18.1939705983879811
  0
ARC
  5
148C
  8
0
 10
-170.7701219198874867
 20
-943.2235873141441971
 30
0.0
 40
9.9999999999996447
210
0.0
220
-0.0000000000000002
230
-1.0
 50
341.8060294016120793
 51
0.0
  0
ARC
  5
148D
  8
0
 10
-102.7701219198882967
 20
-943.2235873141441971
 30
0.0
 40
9.9999999999996021
210
0.0
220
-0.0000000000000002
230
-1.0
 50
180.0
 51
198.1939705983878923
  0
LINE
  5
148E
  8
0
 10
112.7701219198878988
 20
-943.2235873141441971
 30
0.0000000000002094
 11
112.7701219198878988
 21
-939.0454126946407314
 31
0.0000000000002085
210
0.0
220
1.0
230
-0.0000000000000002
  0
LINE
  5
148F
  8
0
 10
160.770121919887913
 20
-943.2235873141441971
 30
0.0000000000002094
 11
160.770121919887913
 21
-939.0454126946407314
 31
0.0000000000002085
210
0.0
220
1.0
230
-0.0000000000000002
  0
ARC
  5
1490
  8
0
 10
-150.7701219198868898
 20
-939.0454126946409588
 30
0.0
 40
10.0000000000010996
210
0.0
220
-0.0000000000000002
230
-1.0
 50
144.3409123038628081
 51
179.9999999999974136
  0
ARC
  5
1491
  8
0
 10
-122.770121919888993
 20
-939.0454126946411861
 30
0.0
 40
10.0000000000012506
210
0.0
220
-0.0000000000000002
230
-1.0
 50
0.0000000000032569
 51
35.6590876961373482
  0
ARC
  5
1492
  8
0
 10
-163.7701219198877141
 20
-929.7180336415519832
 30
0.0
 40
5.9999999999997016
210
0.0
220
-0.0000000000000002
230
-1.0
 50
324.3409123038609891
 51
0.0000000000010941
  0
ARC
  5
1493
  8
0
 10
-109.7701219198879983
 20
-929.7180336415519832
 30
0.0
 40
5.9999999999998428
210
0.0
220
-0.0000000000000002
230
-1.0
 50
179.9999999999988916
 51
215.6590876961381866
  0
LINE
  5
1494
  8
0
 10
115.7701219198877993
 20
-929.7180336415517559
 30
0.0000000000002064
 11
115.7701219198877993
 21
1.2708590132647259
 31
-0.0000000000000003
210
0.0
220
1.0
230
-0.0000000000000002
  0
LINE
  5
1495
  8
0
 10
157.770121919887913
 20
-929.7180336415519832
 30
0.0000000000002064
 11
157.770121919887913
 21
1.2708590132647259
 31
-0.0000000000000003
210
0.0
220
1.0
230
-0.0000000000000002
  0
LINE
  5
1496
  8
0
  6
VERDECKT
 62
     1
 10
113.9995737377799969
 20
35.1816690203649003
 30
-0.0000000000000078
 11
159.5406701019958859
 21
35.1816690203649003
 31
-0.0000000000000078
210
0.0
220
1.0
230
-0.0000000000000002
  0
LINE
  5
1497
  8
0
  6
VERDECKT
 62
     1
 10
159.5406701019958859
 20
-963.6288436486520368
 30
0.000000000000214
 11
113.9995737377798974
 21
-963.6288436486520368
 31
0.000000000000214
210
0.0
220
1.0
230
-0.0000000000000002
  0
ARC
  5
1498
  8
0
  6
VERDECKT
 62
     1
 10
-109.7701219198883962
 20
1.270859013264795
 30
0.0
 40
7.4999999999995453
210
0.0
220
-0.0000000000000002
230
-1.0
 50
144.3409123038599091
 51
180.0000000000003979
  0
ARC
  5
1499
  8
0
  6
VERDECKT
 62
     1
 10
-163.7701219198877141
 20
1.2708590132647271
 30
0.0
 40
7.4999999999997149
210
0.0
220
-0.0000000000000002
230
-1.0
 50
0.0
 51
35.659087696139828
  0
ARC
  5
149A
  8
0
  6
VERDECKT
 62
     1
 10
-122.7701219198873019
 20
10.5982380663532503
 30
0.0
 40
8.4999999999993321
210
0.0
220
-0.0000000000000002
230
-1.0
 50
324.3409123038599091
 51
0.0000000000014949
  0
ARC
  5
149B
  8
0
  6
VERDECKT
 62
     1
 10
-150.7701219198887088
 20
10.5982380663532307
 30
0.0
 40
8.4999999999992326
210
0.0
220
-0.0000000000000002
230
-1.0
 50
179.9999999999984084
 51
215.6590876961404035
  0
LINE
  5
149C
  8
0
  6
VERDECKT
 62
     1
 10
159.270121919887913
 20
14.7764126858570606
 30
-0.0000000000000033
 11
159.270121919887913
 21
10.5982380663534705
 31
-0.0000000000000024
210
0.0
220
1.0
230
-0.0000000000000002
  0
LINE
  5
149D
  8
0
  6
VERDECKT
 62
     1
 10
114.2701219198878988
 20
14.7764126858570606
 30
-0.0000000000000033
 11
114.2701219198878988
 21
10.5982380663534705
 31
-0.0000000000000024
210
0.0
220
1.0
230
-0.0000000000000002
  0
ARC
  5
149E
  8
0
  6
VERDECKT
 62
     1
 10
-102.7701219198887941
 20
14.7764126858571192
 30
0.0
 40
11.4999999999991704
210
0.0
220
-0.0000000000000002
230
-1.0
 50
161.8060294016123066
 51
180.000000000000199
  0
ARC
  5
149F
  8
0
  6
VERDECKT
 62
     1
 10
-170.7701219198866056
 20
14.7764126858571601
 30
0.0
 40
11.4999999999986304
210
0.0
220
-0.0000000000000002
230
-1.0
 50
359.9999999999994884
 51
18.1939705983883684
  0
ARC
  5
14A0
  8
0
  6
VERDECKT
 62
     1
 10
-131.2701219198785907
 20
24.1434126858554201
 30
0.0
 40
18.4998448162559193
210
0.0
220
-0.0000000000000002
230
-1.0
 50
341.8060294016127045
 51
0.0000000000049362
  0
ARC
  5
14A1
  8
0
  6
VERDECKT
 62
     1
 10
-142.2701219198962121
 20
24.1434126858556084
 30
0.0
 40
18.4998448162570206
210
0.0
220
-0.0000000000000002
230
-1.0
 50
179.9999999999955946
 51
198.1939705983868123
  0
LINE
  5
14A2
  8
0
  6
VERDECKT
 62
     1
 10
112.7702771036227034
 20
24.1434126858570188
 30
-0.0000000000000054
 11
112.7701219198879983
 21
29.2342323654486407
 31
-0.0000000000000065
210
0.0
220
1.0
230
-0.0000000000000002
  0
LINE
  5
14A3
  8
0
  6
VERDECKT
 62
     1
 10
160.7699667361532079
 20
24.1434126858570188
 30
-0.0000000000000054
 11
160.770121919887913
 21
29.2342323654486407
 31
-0.0000000000000065
210
0.0
220
1.0
230
-0.0000000000000002
  0
ARC
  5
14A4
  8
0
  6
VERDECKT
 62
     1
 10
-127.7679103329348038
 20
29.2346895438530083
 30
0.0
 40
14.9977884200149401
210
0.0
220
-0.0000000000000002
230
-1.0
 50
359.9982534496202788
 51
23.3610410950194307
  0
ARC
  5
14A5
  8
0
  6
VERDECKT
 62
     1
 10
-145.7723335068413917
 20
29.234689543853051
 30
0.0
 40
14.9977884200146203
210
0.0
220
-0.0000000000000002
230
-1.0
 50
156.6389589049801998
 51
180.0017465503796927
  0
LINE
  5
14A6
  8
0
  6
VERDECKT
 62
     1
 10
113.9995737377799969
 20
35.1816690203649287
 30
-0.0000000000000078
 11
112.6225189195692025
 21
35.776412685856549
 31
-0.0000000000000079
210
0.0
220
1.0
230
-0.0000000000000002
  0
LINE
  5
14A7
  8
0
  6
VERDECKT
 62
     1
 10
159.5406701019958859
 20
35.1816690203649287
 30
-0.0000000000000078
 11
160.9177249202066946
 21
35.7764126858565632
 31
-0.0000000000000079
210
0.0
220
1.0
230
-0.0000000000000002
  0
LINE
  5
14A8
  8
0
  6
VERDECKT
 62
     1
 10
117.2701219198878988
 20
-929.7180336415517559
 30
0.0000000000002064
 11
117.2701219198878988
 21
1.2708590132647259
 31
-0.0000000000000003
210
0.0
220
1.0
230
-0.0000000000000002
  0
LINE
  5
14A9
  8
0
  6
VERDECKT
 62
     1
 10
156.270121919887913
 20
-929.7180336415519832
 30
0.0000000000002064
 11
156.270121919887913
 21
1.2708590132647259
 31
-0.0000000000000003
210
0.0
220
1.0
230
-0.0000000000000002
  0
ARC
  5
14AA
  8
0
  6
VERDECKT
 62
     1
 10
-163.7701219198877141
 20
-929.7180336415517559
 30
0.0
 40
7.4999999999998757
210
0.0
220
-0.0000000000000002
230
-1.0
 50
324.3409123038599091
 51
359.9999999999992042
  0
ARC
  5
14AB
  8
0
  6
VERDECKT
 62
     1
 10
-109.7701219198881972
 20
-929.7180336415517559
 30
0.0
 40
7.4999999999996856
210
0.0
220
-0.0000000000000002
230
-1.0
 50
180.0
 51
215.6590876961398919
  0
ARC
  5
14AC
  8
0
  6
VERDECKT
 62
     1
 10
-150.7701219198887941
 20
-939.0454126946402766
 30
0.0
 40
8.4999999999990745
210
0.0
220
-0.0000000000000002
230
-1.0
 50
144.3409123038597102
 51
180.0000000000021885
  0
ARC
  5
14AD
  8
0
  6
VERDECKT
 62
     1
 10
-122.7701219198875009
 20
-939.0454126946402766
 30
0.0
 40
8.4999999999996163
210
0.0
220
-0.0000000000000002
230
-1.0
 50
359.9999999999984084
 51
35.6590876961388332
  0
LINE
  5
14AE
  8
0
  6
VERDECKT
 62
     1
 10
114.2701219198878988
 20
-943.2235873141441971
 30
0.0000000000002094
 11
114.2701219198878988
 21
-939.0454126946407314
 31
0.0000000000002085
210
0.0
220
1.0
230
-0.0000000000000002
  0
LINE
  5
14AF
  8
0
  6
VERDECKT
 62
     1
 10
159.270121919887913
 20
-943.2235873141441971
 30
0.0000000000002094
 11
159.270121919887913
 21
-939.0454126946407314
 31
0.0000000000002085
210
0.0
220
1.0
230
-0.0000000000000002
  0
ARC
  5
14B0
  8
0
  6
VERDECKT
 62
     1
 10
-170.7701219198881972
 20
-943.2235873141441971
 30
0.0
 40
11.5000000000003002
210
0.0
220
-0.0000000000000002
230
-1.0
 50
341.8060294016144098
 51
0.0
  0
ARC
  5
14B1
  8
0
  6
VERDECKT
 62
     1
 10
-102.7701219198895046
 20
-943.2235873141443108
 30
0.0
 40
11.49999999999838
210
0.0
220
-0.0000000000000002
230
-1.0
 50
179.9999999999994031
 51
198.1939705983886881
  0
ARC
  5
14B2
  8
0
  6
VERDECKT
 62
     1
 10
-142.270121919897008
 20
-952.590587314142681
 30
0.0
 40
18.4998448162562283
210
0.0
220
-0.0000000000000002
230
-1.0
 50
161.8060294016121929
 51
180.0000000000044906
  0
ARC
  5
14B3
  8
0
  6
VERDECKT
 62
     1
 10
-131.2701219198787896
 20
-952.5905873141424536
 30
0.0
 40
18.4998448162562283
210
0.0
220
-0.0000000000000002
230
-1.0
 50
359.9999999999951115
 51
18.193970598387061
  0
LINE
  5
14B4
  8
0
  6
VERDECKT
 62
     1
 10
160.7699667361532079
 20
-952.5905873141440452
 30
0.0000000000002115
 11
160.770121919887913
 21
-957.6814069937358909
 31
0.0000000000002126
210
0.0
220
1.0
230
-0.0000000000000002
  0
LINE
  5
14B5
  8
0
  6
VERDECKT
 62
     1
 10
112.7702771036226039
 20
-952.5905873141440452
 30
0.0000000000002115
 11
112.7701219198878988
 21
-957.6814069937356635
 31
0.0000000000002126
210
0.0
220
1.0
230
-0.0000000000000002
  0
ARC
  5
14B6
  8
0
  6
VERDECKT
 62
     1
 10
-145.7723335068417896
 20
-957.6818641721401946
 30
0.0
 40
14.9977884200141602
210
0.0
220
-0.0000000000000002
230
-1.0
 50
179.9982534496201083
 51
203.3610410950199991
  0
ARC
  5
14B7
  8
0
  6
VERDECKT
 62
     1
 10
-127.7679103329345054
 20
-957.6818641721401946
 30
0.0
 40
14.9977884200147091
210
0.0
220
-0.0000000000000002
230
-1.0
 50
336.6389589049804272
 51
0.0017465503798437
  0
LINE
  5
14B8
  8
0
  6
VERDECKT
 62
     1
 10
159.5406701019958859
 20
-963.6288436486520368
 30
0.000000000000214
 11
160.9177249202066946
 21
-964.2235873141437423
 31
0.0000000000002141
210
0.0
220
1.0
230
-0.0000000000000002
  0
LINE
  5
14B9
  8
0
  6
VERDECKT
 62
     1
 10
113.9995737377798974
 20
-963.6288436486520368
 30
0.000000000000214
 11
112.622518919569103
 21
-964.2235873141437423
 31
0.0000000000002141
210
0.0
220
1.0
230
-0.0000000000000002
  0
ENDBLK
  5
14BB
  8
0
  0
ENDSEC
  0
SECTION
  2
ENTITIES
  0
TEXT
  5
8F
  8
VOLL
 10
78.076754716981128
 20
31.025947764705851
 30
0.0
 40
1.8
  1

  7
GREEKS
  0
INSERT
  5
B3C
  8
ADSK_ASSOC_ENTITY_BACKUPS
  2
*S2
 10
0.0
 20
0.0
 30
0.0
  0
INSERT
  5
14BC
  8
STEMPEL
  2
A$C56C89DA7
 10
59.0134388773459193
 20
-47.7666806362973233
 30
-30.8129527440523283
  0
VIEWPORT
  5
928
 67
     1
  8
0
 10
104.9325357368027056
 20
148.4488398705011889
 30
0.0
 40
533.9969448798291296
 41
299.1239570917758783
 68
     1
 69
     1
1001
ACAD
1000
MVIEW
1002
{
1070
    16
1010
0.0
1020
0.0
1030
0.0
1010
0.0
1020
0.0
1030
1.0
1040
0.0
1040
299.1239570917758783
1040
104.9325357368027056
1040
148.4488398705011889
1040
50.0
1040
0.0
1040
0.0
1070
     0
1070
  1500
1070
     1
1070
     1
1070
     0
1070
     0
1070
     0
1070
     0
1040
0.0
1040
0.0
1040
0.0
1040
10.0
1040
10.0
1040
10.0
1040
10.0
1070
     0
1002
{
1002
}
1002
}
  0
ENDSEC
  0
EOF
