  0
SECTION
  2
HEADER
  9
$ACADVER
  1
AC1009
  9
$INSBASE
 10
0.0
 20
0.0
 30
0.0
  9
$EXTMIN
 10
-42.1000938415527273
 20
-0.000000000000008
 30
-112.0524063110350994
  9
$EXTMAX
 10
42.0999984741210866
 20
0.0000000000008419
 30
3000.0
  9
$LIMMIN
 10
0.0
 20
0.0
  9
$LIMMAX
 10
210.0
 20
297.0
  9
$ORTHOMODE
 70
     1
  9
$REGENMODE
 70
     1
  9
$FILLMODE
 70
     1
  9
$QTEXTMODE
 70
     0
  9
$MIRRTEXT
 70
     1
  9
$DRAGMODE
 70
     2
  9
$LTSCALE
 40
10.0
  9
$OSMODE
 70
  3583
  9
$ATTMODE
 70
     1
  9
$TEXTSIZE
 40
3.5
  9
$TRACEWID
 40
0.5
  9
$TEXTSTYLE
  7
STANDARD
  9
$CLAYER
  8
STEMPEL
  9
$CELTYPE
  6
BYLAYER
  9
$CECOLOR
 62
   256
  9
$DIMSCALE
 40
1.0
  9
$DIMASZ
 40
3.5
  9
$DIMEXO
 40
1.0
  9
$DIMDLI
 40
0.38
  9
$DIMRND
 40
0.0
  9
$DIMDLE
 40
0.0
  9
$DIMEXE
 40
1.0
  9
$DIMTP
 40
0.0
  9
$DIMTM
 40
0.000000001
  9
$DIMTXT
 40
3.5
  9
$DIMCEN
 40
0.09
  9
$DIMTSZ
 40
0.0
  9
$DIMTOL
 70
     0
  9
$DIMLIM
 70
     0
  9
$DIMTIH
 70
     0
  9
$DIMTOH
 70
     0
  9
$DIMSE1
 70
     0
  9
$DIMSE2
 70
     0
  9
$DIMTAD
 70
     1
  9
$DIMZIN
 70
     8
  9
$DIMBLK
  1

  9
$DIMASO
 70
     1
  9
$DIMSHO
 70
     0
  9
$DIMPOST
  1

  9
$DIMAPOST
  1

  9
$DIMALT
 70
     0
  9
$DIMALTD
 70
     2
  9
$DIMALTF
 40
25.3999999999999986
  9
$DIMLFAC
 40
2.0
  9
$DIMTOFL
 70
     1
  9
$DIMTVP
 40
0.0
  9
$DIMTIX
 70
     0
  9
$DIMSOXD
 70
     0
  9
$DIMSAH
 70
     0
  9
$DIMBLK1
  1

  9
$DIMBLK2
  1

  9
$DIMSTYLE
  2
LORO
  9
$DIMCLRD
 70
     0
  9
$DIMCLRE
 70
     0
  9
$DIMCLRT
 70
     1
  9
$DIMTFAC
 40
0.5
  9
$DIMGAP
 40
1.5
  9
$LUNITS
 70
     2
  9
$LUPREC
 70
     2
  9
$SKETCHINC
 40
1.0
  9
$FILLETRAD
 40
8.0
  9
$AUNITS
 70
     0
  9
$AUPREC
 70
     0
  9
$MENU
  1
ACAD
  9
$ELEVATION
 40
0.0
  9
$PELEVATION
 40
0.0
  9
$THICKNESS
 40
0.0
  9
$LIMCHECK
 70
     0
  9
$BLIPMODE
 70
     0
  9
$CHAMFERA
 40
0.0
  9
$CHAMFERB
 40
0.0
  9
$SKPOLY
 70
     0
  9
$TDCREATE
 40
2455397.8646990740671754
  9
$TDUPDATE
 40
2460747.4216550928540528
  9
$TDINDWG
 40
0.1937993519
  9
$TDUSRTIMER
 40
0.1937993519
  9
$USRTIMER
 70
     1
  9
$ANGBASE
 50
0.0
  9
$ANGDIR
 70
     0
  9
$PDMODE
 70
     0
  9
$PDSIZE
 40
0.0
  9
$PLINEWID
 40
0.0
  9
$COORDS
 70
     1
  9
$SPLFRAME
 70
     0
  9
$SPLINETYPE
 70
     6
  9
$SPLINESEGS
 70
     8
  9
$ATTDIA
 70
     1
  9
$ATTREQ
 70
     1
  9
$HANDLING
 70
     1
  9
$HANDSEED
  5
29DA
  9
$SURFTAB1
 70
     6
  9
$SURFTAB2
 70
     6
  9
$SURFTYPE
 70
     6
  9
$SURFU
 70
     6
  9
$SURFV
 70
     6
  9
$UCSNAME
  2

  9
$UCSORG
 10
0.0
 20
0.0
 30
0.0
  9
$UCSXDIR
 10
1.0
 20
0.0
 30
0.0
  9
$UCSYDIR
 10
0.0
 20
1.0
 30
0.0
  9
$PUCSNAME
  2

  9
$PUCSORG
 10
0.0
 20
0.0
 30
0.0
  9
$PUCSXDIR
 10
1.0
 20
0.0
 30
0.0
  9
$PUCSYDIR
 10
0.0
 20
1.0
 30
0.0
  9
$USERI1
 70
     0
  9
$USERI2
 70
     0
  9
$USERI3
 70
     0
  9
$USERI4
 70
     0
  9
$USERI5
 70
     0
  9
$USERR1
 40
0.0
  9
$USERR2
 40
0.0
  9
$USERR3
 40
0.0
  9
$USERR4
 40
0.0
  9
$USERR5
 40
0.0
  9
$WORLDVIEW
 70
     1
  9
$SHADEDGE
 70
     3
  9
$SHADEDIF
 70
    70
  9
$TILEMODE
 70
     1
  9
$MAXACTVP
 70
    16
  9
$PLIMCHECK
 70
     0
  9
$PEXTMIN
 10
1.0000000000000000E+20
 20
1.0000000000000000E+20
 30
1.0000000000000000E+20
  9
$PEXTMAX
 10
-1.0000000000000000E+20
 20
-1.0000000000000000E+20
 30
-1.0000000000000000E+20
  9
$PLIMMIN
 10
-6.5507563588300846
 20
-5.0340269820445647
  9
$PLIMMAX
 10
203.4492436411698861
 20
291.9659730179553776
  9
$UNITMODE
 70
     0
  9
$VISRETAIN
 70
     0
  9
$PLINEGEN
 70
     0
  9
$PSLTSCALE
 70
     0
  0
ENDSEC
  0
SECTION
  2
TABLES
  0
TABLE
  2
VPORT
 70
     1
  0
VPORT
  2
*ACTIVE
 70
     0
 10
0.0
 20
0.0
 11
1.0
 21
1.0
 12
45.4889646547007871
 22
1476.4683550990109779
 13
0.0
 23
0.0
 14
1.0
 24
1.0
 15
10.0
 25
10.0
 16
0.0
 26
-1851.0168265487550343
 36
0.0
 17
-45.4890123384166429
 27
1498.4779663085939774
 37
-32.4945582545287976
 40
3128.2049274510582109
 41
1.9004329004328999
 42
50.0
 43
0.0
 44
0.0
 50
0.0
 51
0.0
 71
     0
 72
  1500
 73
     1
 74
     0
 75
     0
 76
     0
 77
     0
 78
     0
  0
ENDTAB
  0
TABLE
  2
LTYPE
 70
     3
  0
LTYPE
  2
CONTINUOUS
 70
     0
  3
Solid line
 72
    65
 73
     0
 40
0.0
  0
LTYPE
  2
AUSGEZOGEN
 70
     0
  3
Ausgezogene Linie
 72
    65
 73
     0
 40
0.0
  0
LTYPE
  2
VERDECKT
 70
     0
  3
Verdeckt __ __ __ __ __ __ __ __ __ __ __ __ __
 72
    65
 73
     2
 40
0.375
 49
0.25
 49
-0.125
  0
ENDTAB
  0
TABLE
  2
LAYER
 70
     8
  0
LAYER
  2
0
 70
     0
 62
     7
  6
CONTINUOUS
  0
LAYER
  2
VOLL
 70
     0
 62
     1
  6
CONTINUOUS
  0
LAYER
  2
BEM
 70
     0
 62
     7
  6
CONTINUOUS
  0
LAYER
  2
STEMPEL
 70
     0
 62
     3
  6
CONTINUOUS
  0
LAYER
  2
TEXT
 70
     0
 62
     7
  6
CONTINUOUS
  0
LAYER
  2
DEFPOINTS
 70
     0
 62
     7
  6
AUSGEZOGEN
  0
LAYER
  2
ADSK_ASSOC_ENTITY_BACKUPS
 70
     1
 62
    -7
  6
CONTINUOUS
  0
LAYER
  2
ROHR
 70
     0
 62
   254
  6
CONTINUOUS
  0
ENDTAB
  0
TABLE
  2
STYLE
 70
     3
  0
STYLE
  2
STANDARD
 70
     0
 40
0.0
 41
0.8
 50
0.0
 71
     0
 42
3.5
  3
simplex.shx
  4

  0
STYLE
  2
GREEKS
 70
     0
 40
0.0
 41
0.8
 50
0.0
 71
     0
 42
2.5
  3
SIMPLEX.shx
  4

  0
STYLE
  2

 70
     1
 40
0.0
 41
1.0
 50
0.0
 71
     0
 42
2.5
  3
ltypeshp.shx
  4

  0
ENDTAB
  0
TABLE
  2
VIEW
 70
     0
  0
ENDTAB
  0
TABLE
  2
UCS
 70
     0
  0
ENDTAB
  0
TABLE
  2
APPID
 70
    26
  0
APPID
  2
ACAD
 70
     0
  0
APPID
  2
ACAD_NAV_VCDISPLAY
 70
     0
  0
APPID
  2
ACAECLAYERSTANDARD
 70
     0
  0
APPID
  2
ACCMTRANSPARENCY
 70
     0
  0
APPID
  2
ACAD_PSEXT
 70
     0
  0
APPID
  2
ACAD_MLEADERVER
 70
     0
  0
APPID
  2
ACAD_OBJECT_CHANGE_GUID
 70
     0
  0
APPID
  2
ACAD_EXEMPT_FROM_CAD_STANDARDS
 70
     0
  0
APPID
  2
ACADANNOMONITORALERTICONDI
 70
     0
  0
APPID
  2
ACAD_DSTYLE_DIMJAG
 70
     0
  0
APPID
  2
ACAD_DSTYLE_DIMTALN
 70
     0
  0
APPID
  2
GRADIENTCOLOR1ACI
 70
     0
  0
APPID
  2
GRADIENTCOLOR2ACI
 70
     0
  0
APPID
  2
ACAD_DSTYLE_DIMRADIAL_EXTENSION
 70
     0
  0
APPID
  2
ACDBDYNAMICBLOCKGUID
 70
     0
  0
APPID
  2
ACAD_STEPID
 70
     0
  0
APPID
  2
ACAD_DSTYLE_DIMBREAK
 70
     0
  0
APPID
  2
ACSYNERGY
 70
     0
  0
APPID
  2
SYNERGY_BODY_TBR_ID
 70
     0
  0
APPID
  2
ACAD_VIEW_EDGE_ID
 70
     0
  0
APPID
  2
ACADANNOPO
 70
     0
  0
APPID
  2
ACAD_DIMASSOC_CALC_DIMLFAC
 70
     0
  0
APPID
  2
ACAD_DIMASSOC_DIMLFAC
 70
     0
  0
APPID
  2
ACAD_DIMASSOC_OVERRIDDEN_D
 70
     0
  0
APPID
  2
ACADANNOTATIVE
 70
     0
  0
APPID
  2
ACSYNERGYSKETCH
 70
     0
  0
ENDTAB
  0
TABLE
  2
DIMSTYLE
 70
     2
  0
DIMSTYLE
  2
LORO
 70
     0
  3

  4

  5

  6

  7

 40
1.0
 41
3.5
 42
1.0
 43
0.38
 44
1.0
 45
0.0
 46
0.0
 47
0.0
 48
0.000000001
140
3.5
141
0.09
142
0.0
143
25.3999999999999986
144
2.0
145
0.0
146
0.5
147
1.5
 71
     0
 72
     0
 73
     0
 74
     0
 75
     0
 76
     0
 77
     1
 78
     8
170
     0
171
     2
172
     1
173
     0
174
     0
175
     0
176
     0
177
     0
178
     1
  0
DIMSTYLE
  2
STANDARD
 70
     0
  3

  4

  5

  6

  7

 40
1.0
 41
0.18
 42
0.0625
 43
0.38
 44
0.18
 45
0.0
 46
0.0
 47
0.0
 48
0.0
140
0.18
141
0.09
142
0.0
143
25.3999999999999986
144
1.0
145
0.0
146
1.0
147
0.09
 71
     0
 72
     0
 73
     1
 74
     1
 75
     0
 76
     0
 77
     0
 78
     0
170
     0
171
     2
172
     0
173
     0
174
     0
175
     0
176
     0
177
     0
178
     0
  0
ENDTAB
  0
ENDSEC
  0
SECTION
  2
BLOCKS
  0
BLOCK
  8
0
  2
$MODEL_SPACE
 70
     0
 10
0.0
 20
0.0
 30
0.0
  3
$MODEL_SPACE
  1

  0
ENDBLK
  5
36
  8
0
  0
BLOCK
 67
     1
  8
0
  2
$PAPER_SPACE
 70
     0
 10
0.0
 20
0.0
 30
0.0
  3
$PAPER_SPACE
  1

  0
ENDBLK
  5
34
 67
     1
  8
0
  0
BLOCK
  8
0
  2
*S0
 70
     1
 10
0.0
 20
0.0
 30
0.0
  3
*S0
  1

  0
ENDBLK
  5
16F1
  8
0
  0
BLOCK
  8
0
  2
A$C8CAE0D21
 70
     0
 10
0.0
 20
0.0
 30
0.0
  3
A$C8CAE0D21
  1

  0
LINE
  5
2938
  8
0
  6
CONTINUOUS
 62
     3
 10
-19.2078111490988803
 20
2971.9143659937658413
 30
-0.0000000000006599
 11
20.5575861791776511
 21
2971.9143659937672055
 31
-0.0000000000006599
210
0.0
220
1.0
230
-0.0000000000000002
  0
LINE
  5
2939
  8
0
  6
CONTINUOUS
 62
     3
 10
20.5575861791776617
 20
2971.9143659937658413
 30
-0.0000000000006599
 11
60.322983507454218
 21
2971.9143659937658413
 31
-0.0000000000006599
210
0.0
220
1.0
230
-0.0000000000000002
  0
LINE
  5
293A
  8
0
  6
CONTINUOUS
 62
     3
 10
-19.2078111490989691
 20
-28.0856340062353915
 30
0.0000000000000062
 11
20.5575861791775303
 21
-28.0856340062356189
 31
0.0000000000000062
210
0.0
220
1.0
230
-0.0000000000000002
  0
LINE
  5
293B
  8
0
  6
CONTINUOUS
 62
     3
 10
20.5575861791775409
 20
-28.0856340062356011
 30
0.0000000000000062
 11
60.3229835074540972
 21
-28.0856340062353489
 31
0.0000000000000062
210
0.0
220
1.0
230
-0.0000000000000002
  0
ARC
  5
293C
  8
0
  6
CONTINUOUS
 62
     3
 10
-3.4575861791746512
 20
2961.3654435866510539
 30
0.0
 40
24.9999999999969802
210
0.0
220
-0.0000000000000002
230
-1.0
 50
0.0
 51
24.9581963123100898
  0
ARC
  5
293D
  8
0
  6
CONTINUOUS
 62
     3
 10
-37.6575861791808393
 20
2961.3654435866510539
 30
0.0
 40
24.9999999999966711
210
0.0
220
-0.0000000000000002
230
-1.0
 50
155.0418036876907877
 51
180.0000000000009948
  0
LINE
  5
293E
  8
0
  6
CONTINUOUS
 62
     3
 10
62.6575861791776703
 20
2961.3654435866510539
 30
-0.0000000000006576
 11
62.6575861791776703
 21
2952.3526460419611794
 31
-0.0000000000006556
210
0.0
220
1.0
230
-0.0000000000000002
  0
LINE
  5
293F
  8
0
  6
CONTINUOUS
 62
     3
 10
-21.542413820822329
 20
2961.3654435866510539
 30
-0.0000000000006576
 11
-21.542413820822329
 21
2952.3526460419611794
 31
-0.0000000000006556
210
0.0
220
1.0
230
-0.0000000000000002
  0
ARC
  5
2940
  8
0
  6
CONTINUOUS
 62
     3
 10
-3.4575861791585392
 20
2952.2843659937661869
 30
0.0
 40
25.0000932431066616
210
0.0
220
-0.0000000000000002
230
-1.0
 50
338.8168456069582248
 51
0.1564859543603263
  0
ARC
  5
2941
  8
0
  6
CONTINUOUS
 62
     3
 10
-37.6575861791968123
 20
2952.2843659937661869
 30
0.0
 40
25.0000932431065905
210
0.0
220
-0.0000000000000002
230
-1.0
 50
179.8435140456386137
 51
201.1831543930408088
  0
ARC
  5
2942
  8
0
  6
CONTINUOUS
 62
     3
 10
31.0424138208201192
 20
2938.9143659937690245
 30
0.0
 40
11.9999999999978595
210
0.0
220
-0.0000000000000002
230
-1.0
 50
158.8168456069572017
 51
180.0
  0
ARC
  5
2943
  8
0
  6
CONTINUOUS
 62
     3
 10
-72.1575861791752402
 20
2938.9143659937690245
 30
0.0
 40
11.9999999999976694
210
0.0
220
-0.0000000000000002
230
-1.0
 50
0.0
 51
21.183154393043111
  0
LINE
  5
2944
  8
0
  6
CONTINUOUS
 62
     3
 10
60.1575861791775424
 20
2938.9143659937690245
 30
-0.0000000000006526
 11
60.1575861791775424
 21
2922.3030924111872082
 31
-0.0000000000006489
210
0.0
220
1.0
230
-0.0000000000000002
  0
LINE
  5
2945
  8
0
  6
CONTINUOUS
 62
     3
 10
-19.0424138208222082
 20
2938.9143659937690245
 30
-0.0000000000006526
 11
-19.0424138208222189
 21
2922.3030924111872082
 31
-0.0000000000006489
210
0.0
220
1.0
230
-0.0000000000000002
  0
ARC
  5
2946
  8
0
  6
CONTINUOUS
 62
     3
 10
7.0424138208229703
 20
2922.3030924111872082
 30
0.0
 40
11.9999999999993907
210
0.0
220
-0.0000000000000002
230
-1.0
 50
327.6719358778328797
 51
0.0
  0
ARC
  5
2947
  8
0
  6
CONTINUOUS
 62
     3
 10
-48.1575861791783311
 20
2922.3030924111872082
 30
0.0
 40
11.9999999999992397
210
0.0
220
-0.0000000000000002
230
-1.0
 50
180.0
 51
212.3280641221672056
  0
ARC
  5
2948
  8
0
  6
CONTINUOUS
 62
     3
 10
23.9424138208228392
 20
2911.6077663292007855
 30
0.0
 40
8.0000000000004992
210
0.0
220
-0.0000000000000002
230
-1.0
 50
147.6719358778368871
 51
180.0
  0
ARC
  5
2949
  8
0
  6
CONTINUOUS
 62
     3
 10
-65.0575861791782302
 20
2911.6077663292007855
 30
0.0
 40
8.0000000000006661
210
0.0
220
-0.0000000000000002
230
-1.0
 50
0.0
 51
32.3280641221627505
  0
LINE
  5
294A
  8
0
  6
CONTINUOUS
 62
     3
 10
57.057586179176937
 20
2911.6077663292007855
 30
-0.0000000000006465
 11
57.057586179177477
 21
32.2209656583304493
 31
-0.0000000000000072
210
0.0
220
1.0
230
-0.0000000000000002
  0
LINE
  5
294B
  8
0
  6
CONTINUOUS
 62
     3
 10
-15.9424138208229191
 20
2911.6077663292007855
 30
-0.0000000000006465
 11
-15.9424138208223791
 21
32.2209656583304493
 31
-0.0000000000000072
210
0.0
220
1.0
230
-0.0000000000000002
  0
ARC
  5
294C
  8
0
  6
CONTINUOUS
 62
     3
 10
-37.6575861791805266
 20
-17.5367115991200215
 30
0.0
 40
24.9999999999970299
210
0.0
220
-0.0000000000000002
230
-1.0
 50
179.9999999999994031
 51
204.9581963123102071
  0
ARC
  5
294D
  8
0
  6
CONTINUOUS
 62
     3
 10
-3.4575861791746649
 20
-17.5367115991199896
 30
0.0
 40
24.9999999999971187
210
0.0
220
-0.0000000000000002
230
-1.0
 50
335.0418036876898213
 51
0.0000000000004707
  0
LINE
  5
294E
  8
0
  6
CONTINUOUS
 62
     3
 10
62.6575861791775566
 20
-8.5239140544288361
 30
0.0000000000000019
 11
62.6575861791775566
 21
-17.5367115991197586
 31
0.0000000000000039
210
0.0
220
1.0
230
-0.0000000000000002
  0
LINE
  5
294F
  8
0
  6
CONTINUOUS
 62
     3
 10
-21.5424138208224498
 20
-8.5239140544288503
 30
0.0000000000000019
 11
-21.5424138208224498
 21
-17.5367115991197799
 31
0.0000000000000039
210
0.0
220
1.0
230
-0.0000000000000002
  0
ARC
  5
2950
  8
0
  6
CONTINUOUS
 62
     3
 10
-37.6575861791976223
 20
-8.4556340062342414
 30
0.0
 40
25.0000932431056597
210
0.0
220
-0.0000000000000002
230
-1.0
 50
158.8168456069583101
 51
180.1564859543603916
  0
ARC
  5
2951
  8
0
  6
CONTINUOUS
 62
     3
 10
-3.457586179157043
 20
-8.4556340062341633
 30
0.0
 40
25.0000932431052085
210
0.0
220
-0.0000000000000002
230
-1.0
 50
359.8435140456393242
 51
21.1831543930418995
  0
ARC
  5
2952
  8
0
  6
CONTINUOUS
 62
     3
 10
-72.1575861791748139
 20
4.914365993761586
 30
0.0
 40
11.9999999999973603
210
0.0
220
-0.0000000000000002
230
-1.0
 50
338.8168456069565764
 51
0.0000000000023027
  0
ARC
  5
2953
  8
0
  6
CONTINUOUS
 62
     3
 10
31.0424138208200198
 20
4.9143659937616366
 30
0.0
 40
11.9999999999976694
210
0.0
220
-0.0000000000000002
230
-1.0
 50
179.9999999999980105
 51
201.1831543930431963
  0
LINE
  5
2954
  8
0
  6
CONTINUOUS
 62
     3
 10
60.1575861791774287
 20
21.5256395763448616
 30
-0.0000000000000048
 11
60.1575861791774287
 21
4.9143659937620647
 31
-0.0000000000000011
210
0.0
220
1.0
230
-0.0000000000000002
  0
LINE
  5
2955
  8
0
  6
CONTINUOUS
 62
     3
 10
-19.0424138208223184
 20
21.5256395763448403
 30
-0.0000000000000048
 11
-19.0424138208223184
 21
4.9143659937620514
 31
-0.0000000000000011
210
0.0
220
1.0
230
-0.0000000000000002
  0
ARC
  5
2956
  8
0
  6
CONTINUOUS
 62
     3
 10
-48.1575861791777626
 20
21.5256395763449788
 30
0.0
 40
11.9999999999997105
210
0.0
220
-0.0000000000000002
230
-1.0
 50
147.6719358778366882
 51
180.0000000000005969
  0
ARC
  5
2957
  8
0
  6
CONTINUOUS
 62
     3
 10
7.0424138208226159
 20
21.5256395763449504
 30
0.0
 40
11.9999999999997602
210
0.0
220
-0.0000000000000002
230
-1.0
 50
359.9999999999993747
 51
32.3280641221631768
  0
ARC
  5
2958
  8
0
  6
CONTINUOUS
 62
     3
 10
-65.0575861791774628
 20
32.2209656583305915
 30
0.0
 40
7.9999999999999982
210
0.0
220
-0.0000000000000002
230
-1.0
 50
327.6719358778377114
 51
359.9999999999997726
  0
ARC
  5
2959
  8
0
  6
CONTINUOUS
 62
     3
 10
23.9424138208222708
 20
32.220965658330563
 30
0.0
 40
7.999999999999905
210
0.0
220
-0.0000000000000002
230
-1.0
 50
180.0
 51
212.3280641221626013
  0
ARC
  5
295A
  8
0
  6
VERDECKT
 62
     1
 10
-3.4575861791780929
 20
2961.3654435866501444
 30
0.0
 40
23.4000000000004391
210
0.0
220
-0.0000000000000002
230
-1.0
 50
0.0
 51
26.7955779312248197
  0
ARC
  5
295B
  8
0
  6
VERDECKT
 62
     1
 10
-37.6575861791772368
 20
2961.3654435866501444
 30
0.0
 40
23.4000000000004889
210
0.0
220
-0.0000000000000002
230
-1.0
 50
153.2044220687751022
 51
180.0
  0
LINE
  5
295C
  8
0
  6
VERDECKT
 62
     1
 10
61.0575861791776831
 20
2961.3654435866501444
 30
-0.0000000000006576
 11
61.0575861791776831
 21
2952.3526460419611794
 31
-0.0000000000006556
210
0.0
220
1.0
230
-0.0000000000000002
  0
LINE
  5
295D
  8
0
  6
VERDECKT
 62
     1
 10
-19.9424138208223312
 20
2961.3654435866501444
 30
-0.0000000000006576
 11
-19.9424138208223312
 21
2952.3526460419611794
 31
-0.0000000000006556
210
0.0
220
1.0
230
-0.0000000000000002
  0
ARC
  5
295E
  8
0
  6
VERDECKT
 62
     1
 10
-3.4576728023105789
 20
2952.2843995633738814
 30
0.0
 40
23.4001861435323697
210
0.0
220
-0.0000000000000002
230
-1.0
 50
338.8168456069602144
 51
0.1671029755481348
  0
ARC
  5
295F
  8
0
  6
VERDECKT
 62
     1
 10
-37.6574995560447618
 20
2952.2843995633738814
 30
0.0
 40
23.40018614353232
210
0.0
220
-0.0000000000000002
230
-1.0
 50
179.8328970244519098
 51
201.1831543930397004
  0
ARC
  5
2960
  8
0
  6
VERDECKT
 62
     1
 10
31.0424138208243896
 20
2938.914365993768115
 30
0.0
 40
13.6000000000021508
210
0.0
220
-0.0000000000000002
230
-1.0
 50
158.8168456069620902
 51
179.9999999999980957
  0
ARC
  5
2961
  8
0
  6
VERDECKT
 62
     1
 10
-72.1575861791797166
 20
2938.914365993768115
 30
0.0
 40
13.60000000000211
210
0.0
220
-0.0000000000000002
230
-1.0
 50
0.0000000000019211
 51
21.1831543930378992
  0
LINE
  5
2962
  8
0
  6
VERDECKT
 62
     1
 10
58.5575861791775409
 20
2938.9143659937690245
 30
-0.0000000000006526
 11
58.5575861791775409
 21
2922.303092411185844
 31
-0.0000000000006489
210
0.0
220
1.0
230
-0.0000000000000002
  0
LINE
  5
2963
  8
0
  6
VERDECKT
 62
     1
 10
-17.442413820822221
 20
2938.9143659937690245
 30
-0.0000000000006526
 11
-17.442413820822221
 21
2922.303092411185844
 31
-0.0000000000006489
210
0.0
220
1.0
230
-0.0000000000000002
  0
ARC
  5
2964
  8
0
  6
VERDECKT
 62
     1
 10
7.0424138208217597
 20
2922.3030924111872082
 30
0.0
 40
10.4000000000006203
210
0.0
220
-0.0000000000000002
230
-1.0
 50
327.6719358778369156
 51
359.9999999999974989
  0
ARC
  5
2965
  8
0
  6
VERDECKT
 62
     1
 10
-48.1575861791770876
 20
2922.3030924111872082
 30
0.0
 40
10.4000000000004498
210
0.0
220
-0.0000000000000002
230
-1.0
 50
180.0000000000023874
 51
212.3280641221631129
  0
ARC
  5
2966
  8
0
  6
VERDECKT
 62
     1
 10
23.9424138208241892
 20
2911.6077663291998761
 30
0.0
 40
9.6000000000020922
210
0.0
220
-0.0000000000000002
230
-1.0
 50
147.671935877839303
 51
179.9999999999944862
  0
ARC
  5
2967
  8
0
  6
VERDECKT
 62
     1
 10
-65.0575861791795091
 20
2911.6077663291998761
 30
0.0
 40
9.6000000000019554
210
0.0
220
-0.0000000000000002
230
-1.0
 50
0.0000000000054324
 51
32.3280641221605833
  0
ARC
  5
2968
  8
0
  6
VERDECKT
 62
     1
 10
-37.6575861791785229
 20
-17.5367115991194211
 30
0.0
 40
23.39999999999905
210
0.0
220
-0.0000000000000002
230
-1.0
 50
179.9999999999990905
 51
206.7955779312260063
  0
ARC
  5
2969
  8
0
  6
VERDECKT
 62
     1
 10
-3.4575861791766052
 20
-17.5367115991194211
 30
0.0
 40
23.3999999999990713
210
0.0
220
-0.0000000000000002
230
-1.0
 50
333.2044220687740221
 51
0.0000000000008015
  0
LINE
  5
296A
  8
0
  6
VERDECKT
 62
     1
 10
61.0575861791775409
 20
-8.5239140544286087
 30
0.0000000000000019
 11
61.0575861791775409
 21
-17.5367115991190801
 31
0.0000000000000039
210
0.0
220
1.0
230
-0.0000000000000002
  0
LINE
  5
296B
  8
0
  6
VERDECKT
 62
     1
 10
-19.9424138208224306
 20
-8.5239140544286212
 30
0.0000000000000019
 11
-19.9424138208224306
 21
-17.5367115991191014
 31
0.0000000000000039
210
0.0
220
1.0
230
-0.0000000000000002
  0
ARC
  5
296C
  8
0
  6
VERDECKT
 62
     1
 10
-37.6574995560466235
 20
-8.4556675758427087
 30
0.0
 40
23.4001861435303589
210
0.0
220
-0.0000000000000002
230
-1.0
 50
158.816845606959788
 51
180.1671029755491134
  0
ARC
  5
296D
  8
0
  6
VERDECKT
 62
     1
 10
-3.4576728023086072
 20
-8.4556675758427371
 30
0.0
 40
23.400186143530469
210
0.0
220
-0.0000000000000002
230
-1.0
 50
359.8328970244509151
 51
21.1831543930400201
  0
ARC
  5
296E
  8
0
  6
VERDECKT
 62
     1
 10
-72.1575861791774145
 20
4.9143659937622379
 30
0.0
 40
13.5999999999999197
210
0.0
220
-0.0000000000000002
230
-1.0
 50
338.8168456069595891
 51
359.9999999999992042
  0
ARC
  5
296F
  8
0
  6
VERDECKT
 62
     1
 10
31.0424138208226204
 20
4.9143659937622797
 30
0.0
 40
13.6000000000002306
210
0.0
220
-0.0000000000000002
230
-1.0
 50
180.0000000000007958
 51
201.1831543930400983
  0
LINE
  5
2970
  8
0
  6
VERDECKT
 62
     1
 10
58.5575861791774273
 20
21.5256395763451991
 30
-0.0000000000000048
 11
58.5575861791774273
 21
4.9143659937620647
 31
-0.0000000000000011
210
0.0
220
1.0
230
-0.0000000000000002
  0
LINE
  5
2971
  8
0
  6
VERDECKT
 62
     1
 10
-17.4424138208223312
 20
21.5256395763451884
 30
-0.0000000000000048
 11
-17.4424138208223312
 21
4.9143659937620514
 31
-0.0000000000000011
210
0.0
220
1.0
230
-0.0000000000000002
  0
ARC
  5
2972
  8
0
  6
VERDECKT
 62
     1
 10
-48.1575861791774926
 20
21.5256395763451813
 30
0.0
 40
10.39999999999994
210
0.0
220
-0.0000000000000002
230
-1.0
 50
147.6719358778375977
 51
179.9999999999998863
  0
ARC
  5
2973
  8
0
  6
VERDECKT
 62
     1
 10
7.0424138208223983
 20
21.5256395763451813
 30
0.0
 40
10.3999999999999293
210
0.0
220
-0.0000000000000002
230
-1.0
 50
0.0
 51
32.3280641221623171
  0
ARC
  5
2974
  8
0
  6
VERDECKT
 62
     1
 10
-65.057586179178756
 20
32.2209656583310533
 30
0.0
 40
9.6000000000013017
210
0.0
220
-0.0000000000000002
230
-1.0
 50
327.6719358778402125
 51
359.9999999999985789
  0
ARC
  5
2975
  8
0
  6
VERDECKT
 62
     1
 10
23.942413820823699
 20
32.2209656583310533
 30
0.0
 40
9.6000000000013515
210
0.0
220
-0.0000000000000002
230
-1.0
 50
180.0000000000013074
 51
212.3280641221597023
  0
LINE
  5
2976
  8
0
  6
VERDECKT
 62
     1
 10
55.4575861791769285
 20
2911.6077663292007855
 30
-0.0000000000006465
 11
55.4575861791774685
 21
32.2209656583309112
 31
-0.0000000000000072
210
0.0
220
1.0
230
-0.0000000000000002
  0
LINE
  5
2977
  8
0
  6
VERDECKT
 62
     1
 10
-14.3424138208229106
 20
2911.6077663292007855
 30
-0.0000000000006465
 11
-14.3424138208223706
 21
32.2209656583309112
 31
-0.0000000000000072
210
0.0
220
1.0
230
-0.0000000000000002
  0
ENDBLK
  5
2979
  8
0
  0
BLOCK
  8
0
  2
A$C49AEF509
 70
     0
 10
0.0
 20
0.0
 30
0.0
  3
A$C49AEF509
  1

  0
CIRCLE
  5
297D
  8
0
  6
CONTINUOUS
 62
     3
 10
20.5575861791775587
 20
33.04648828230372
 30
-0.0000000000000036
 40
37.9873223762320222
210
0.0000000000000001
220
0.0
230
-1.0
  0
CIRCLE
  5
297E
  8
0
  6
CONTINUOUS
 62
     3
 10
20.5575861791775409
 20
33.0464882823033292
 30
-0.0000000000000071
 40
34.8999999999999133
210
0.0000000000000001
220
0.0
230
-1.0
  0
CIRCLE
  5
297F
  8
0
  6
CONTINUOUS
 62
     3
 10
20.5575861791775587
 20
33.0464882823036632
 30
-0.0000000000000036
 40
39.7653973282765278
210
0.0000000000000001
220
0.0
230
-1.0
  0
CIRCLE
  5
2980
  8
0
  6
CONTINUOUS
 62
     3
 10
20.5575861791775587
 20
33.0464882823035708
 30
-0.0000000000000036
 40
42.1000000000000085
210
0.0000000000000001
220
0.0
230
-1.0
  0
CIRCLE
  5
2981
  8
0
  6
CONTINUOUS
 62
     3
 10
20.5575861791775587
 20
33.0464882823035566
 30
-0.0000000000000053
 40
42.1000932431257127
210
0.0000000000000001
220
0.0
230
-1.0
  0
CIRCLE
  5
2982
  8
0
  6
VERDECKT
 62
     1
 10
20.5575861791775409
 20
33.0464882823032724
 30
-0.0000000000000071
 40
36.4999999999999076
210
0.0000000000000001
220
0.0
230
-1.0
  0
CIRCLE
  5
2983
  8
0
  6
VERDECKT
 62
     1
 10
20.5575861791775587
 20
33.0464882823036277
 30
-0.0000000000000036
 40
40.5000000000000284
210
0.0000000000000001
220
0.0
230
-1.0
  0
CIRCLE
  5
2984
  8
0
  6
VERDECKT
 62
     1
 10
20.5575861791775516
 20
33.0464882823035282
 30
-0.0000000000000044
 40
37.9999999999999432
210
0.0000000000000001
220
0.0
230
-1.0
  0
CIRCLE
  5
2985
  8
0
  6
VERDECKT
 62
     1
 10
20.5575861791775516
 20
33.0464882823034714
 30
-0.0000000000000044
 40
39.5999999999999019
210
0.0000000000000001
220
0.0
230
-1.0
  0
CIRCLE
  5
2986
  8
0
  6
VERDECKT
 62
     1
 10
20.5575861791775587
 20
33.0464882823035992
 30
-0.0000000000000053
 40
40.5000995203994165
210
0.0000000000000001
220
0.0
230
-1.0
  0
ENDBLK
  5
2988
  8
0
  0
ENDSEC
  0
SECTION
  2
ENTITIES
  0
TEXT
  5
8F
  8
VOLL
 10
78.076754716981128
 20
31.025947764705851
 30
0.0
 40
1.8
  1

  7
GREEKS
  0
TEXT
  5
651
  8
VOLL
 10
591.7182672356415196
 20
33.5632643046214199
 30
0.0
 40
1.8
  1

  7
GREEKS
  0
TEXT
  5
652
  8
TEXT
 10
923.5505354392344088
 20
39.1214998378469616
 30
0.0
 40
2.5
  1
  
  7
GREEKS
 72
     1
 11
925.8124402011393386
 21
39.1214998378469616
 31
0.0
  0
TEXT
  5
653
  8
BEM
 10
1167.6702527517159069
 20
174.6803818682492135
 30
0.0
 40
2.5
  1
 
 72
     4
 11
1168.8012051326691108
 21
174.6803818682492135
 31
0.0
  0
TEXT
  5
654
  8
BEM
 10
746.8578693924373511
 20
53.8966751942979627
 30
0.0
 40
2.5
  1

  7
GREEKS
  0
TEXT
  5
655
  8
VOLL
 10
732.7916763727158695
 20
33.7134145372628495
 30
0.0
 40
1.8
  1

  7
GREEKS
  0
TEXT
  5
656
  8
BEM
 10
767.2797412120005447
 20
38.4391388604834603
 30
0.0
 40
2.5
  1

 41
0.8
  7
GREEKS
  0
TEXT
  5
657
  8
BEM
 10
767.2797412120005447
 20
33.7453703064312904
 30
0.0
 40
2.5
  1

 41
0.8
  7
GREEKS
  0
TEXT
  5
658
  8
BEM
 10
767.2797412120005447
 20
28.5075264877678087
 30
0.0
 40
2.5
  1

 41
0.8
  7
GREEKS
  0
TEXT
  5
659
  8
BEM
 10
767.2067967346260957
 20
24.0023375376701686
 30
0.0
 40
1.8
  1

 41
0.8
  7
GREEKS
  0
TEXT
  5
65A
  8
BEM
 10
754.5232258550148572
 20
49.5939266338954567
 30
0.0
 40
2.0
  1

 41
0.8
  7
GREEKS
 72
     1
 11
754.5232258550148572
 21
49.5939266338954567
 31
0.0
  0
TEXT
  5
65B
  8
TEXT
 10
1064.6239445763089861
 20
39.2716500704883984
 30
0.0
 40
2.5
  1
  
  7
GREEKS
 72
     1
 11
1066.8858493382140296
 21
39.2716500704883984
 31
0.0
  0
TEXT
  5
65C
  8
BEM
 10
1308.743661888790939
 20
174.8305321008905935
 30
0.0
 40
2.5
  1
 
 72
     4
 11
1309.8746142697430059
 21
174.8305321008905935
 31
0.0
  0
TEXT
  5
D28
  8
VOLL
 10
318.0630172788846721
 20
214.5485924295865061
 30
0.0
 40
1.8
  1

  7
GREEKS
  0
INSERT
  5
16F3
  8
ADSK_ASSOC_ENTITY_BACKUPS
  2
*S0
 10
0.0
 20
0.0
 30
0.0
  0
INSERT
  5
297A
  8
STEMPEL
  2
A$C8CAE0D21
 10
-20.5575861791775196
 20
28.0856340062356402
 30
0.0000000000000017
210
0.0
220
-1.0
230
0.0000000000000001
  0
INSERT
  5
2989
  8
STEMPEL
  2
A$C49AEF509
 10
20.5575861791775196
 20
-103.0464882823032013
 30
-0.0000000000000063
210
0.0
220
-1.0
230
0.0000000000000001
  0
VIEWPORT
  5
C2B
 67
     1
  8
0
 10
98.4492436411699146
 20
143.465973017955406
 30
0.0
 40
567.3581314878892954
 41
298.5415224913494967
 68
     1
 69
     1
1001
ACAD
1000
MVIEW
1002
{
1070
    16
1010
0.0
1020
0.0
1030
0.0
1010
0.0
1020
0.0
1030
1.0
1040
0.0
1040
298.5415224913494967
1040
98.4492436411699146
1040
143.465973017955406
1040
50.0
1040
0.0
1040
0.0
1070
     0
1070
  1500
1070
     1
1070
     1
1070
     0
1070
     0
1070
     0
1070
     0
1040
0.0
1040
0.0
1040
0.0
1040
10.0
1040
10.0
1040
10.0
1040
10.0
1070
     0
1002
{
1002
}
1002
}
  0
ENDSEC
  0
EOF
