ISO-10303-21;
HEADER;
/* Generated by software containing ST-Developer
 * from STEP Tools, Inc. (www.steptools.com) 
 */

FILE_DESCRIPTION(
/* description */ (''),
/* implementation_level */ '2;1');

FILE_NAME(
/* name */ '55870.125X_3D.stp',
/* time_stamp */ '2025-05-15T14:31:55+02:00',
/* author */ ('c.rudolph'),
/* organization */ (''),
/* preprocessor_version */ 'ST-DEVELOPER v20',
/* originating_system */ 'AutoCAD Mechanical',
/* authorisation */ '');

FILE_SCHEMA (('AUTOMOTIVE_DESIGN { 1 0 10303 214 3 1 1 }'));
ENDSEC;

DATA;
#10=MECHANICAL_DESIGN_GEOMETRIC_PRESENTATION_REPRESENTATION('',(#170,#171),
#344);
#11=PRESENTATION_LAYER_ASSIGNMENT('2','DEFPOINTS',(#172));
#12=PRESENTATION_LAYER_ASSIGNMENT('3','Material (Verzinkt)',(#22));
#13=ADVANCED_BREP_SHAPE_REPRESENTATION('',(#22),#342);
#14=SHAPE_REPRESENTATION_RELATIONSHIP('SRR','None',#353,#16);
#15=SHAPE_REPRESENTATION_RELATIONSHIP('SRR','None',#353,#13);
#16=GEOMETRICALLY_BOUNDED_SURFACE_SHAPE_REPRESENTATION('',(#17),#342);
#17=GEOMETRIC_SET('GEOSET',(#172));
#18=ITEM_DEFINED_TRANSFORMATION($,$,#188,#217);
#19=(
REPRESENTATION_RELATIONSHIP($,$,#354,#353)
REPRESENTATION_RELATIONSHIP_WITH_TRANSFORMATION(#18)
SHAPE_REPRESENTATION_RELATIONSHIP()
);
#20=CONTEXT_DEPENDENT_SHAPE_REPRESENTATION(#19,#352);
#21=NEXT_ASSEMBLY_USAGE_OCCURRENCE('712A','712A','712A',#356,#357,
'712A');
#22=MANIFOLD_SOLID_BREP('1394E',#169);
#23=CONICAL_SURFACE('',#197,66.8827876621298,1.16939594955881);
#24=CONICAL_SURFACE('',#211,67.1953538964503,1.16939594955881);
#25=TOROIDAL_SURFACE('',#194,71.,3.2);
#26=TOROIDAL_SURFACE('',#199,63.,3.8);
#27=TOROIDAL_SURFACE('',#208,63.,3.);
#28=TOROIDAL_SURFACE('',#213,71.,4.);
#29=CYLINDRICAL_SURFACE('',#192,74.2);
#30=CYLINDRICAL_SURFACE('',#202,59.2);
#31=CYLINDRICAL_SURFACE('',#206,60.);
#32=CYLINDRICAL_SURFACE('',#216,75.);
#33=FACE_BOUND('',#48,.T.);
#34=FACE_BOUND('',#55,.T.);
#35=FACE_OUTER_BOUND('',#47,.T.);
#36=FACE_OUTER_BOUND('',#49,.T.);
#37=FACE_OUTER_BOUND('',#50,.T.);
#38=FACE_OUTER_BOUND('',#51,.T.);
#39=FACE_OUTER_BOUND('',#52,.T.);
#40=FACE_OUTER_BOUND('',#53,.T.);
#41=FACE_OUTER_BOUND('',#54,.T.);
#42=FACE_OUTER_BOUND('',#56,.T.);
#43=FACE_OUTER_BOUND('',#57,.T.);
#44=FACE_OUTER_BOUND('',#58,.T.);
#45=FACE_OUTER_BOUND('',#59,.T.);
#46=FACE_OUTER_BOUND('',#60,.T.);
#47=EDGE_LOOP('',(#111));
#48=EDGE_LOOP('',(#112));
#49=EDGE_LOOP('',(#113,#114,#115,#116));
#50=EDGE_LOOP('',(#117,#118,#119,#120));
#51=EDGE_LOOP('',(#121,#122,#123,#124));
#52=EDGE_LOOP('',(#125,#126,#127,#128));
#53=EDGE_LOOP('',(#129,#130,#131,#132));
#54=EDGE_LOOP('',(#133));
#55=EDGE_LOOP('',(#134));
#56=EDGE_LOOP('',(#135,#136,#137,#138));
#57=EDGE_LOOP('',(#139,#140,#141,#142));
#58=EDGE_LOOP('',(#143,#144,#145,#146));
#59=EDGE_LOOP('',(#147,#148,#149,#150));
#60=EDGE_LOOP('',(#151,#152,#153,#154));
#61=CIRCLE('',#190,75.);
#62=CIRCLE('',#191,74.2);
#63=CIRCLE('',#193,74.2);
#64=CIRCLE('',#195,3.2);
#65=CIRCLE('',#196,72.2502649372817);
#66=CIRCLE('',#198,61.515310386978);
#67=CIRCLE('',#200,59.2);
#68=CIRCLE('',#201,3.8);
#69=CIRCLE('',#203,59.2);
#70=CIRCLE('',#205,60.);
#71=CIRCLE('',#207,60.);
#72=CIRCLE('',#209,3.);
#73=CIRCLE('',#210,61.8278766212984);
#74=CIRCLE('',#212,72.5628311716021);
#75=CIRCLE('',#214,75.);
#76=CIRCLE('',#215,4.);
#77=VERTEX_POINT('',#293);
#78=VERTEX_POINT('',#295);
#79=VERTEX_POINT('',#298);
#80=VERTEX_POINT('',#302);
#81=VERTEX_POINT('',#306);
#82=VERTEX_POINT('',#310);
#83=VERTEX_POINT('',#314);
#84=VERTEX_POINT('',#318);
#85=VERTEX_POINT('',#321);
#86=VERTEX_POINT('',#325);
#87=VERTEX_POINT('',#329);
#88=VERTEX_POINT('',#333);
#89=EDGE_CURVE('',#77,#77,#61,.T.);
#90=EDGE_CURVE('',#78,#78,#62,.T.);
#91=EDGE_CURVE('',#78,#79,#174,.T.);
#92=EDGE_CURVE('',#79,#79,#63,.T.);
#93=EDGE_CURVE('',#79,#80,#64,.T.);
#94=EDGE_CURVE('',#80,#80,#65,.T.);
#95=EDGE_CURVE('',#80,#81,#175,.T.);
#96=EDGE_CURVE('',#81,#81,#66,.T.);
#97=EDGE_CURVE('',#82,#82,#67,.T.);
#98=EDGE_CURVE('',#82,#81,#68,.T.);
#99=EDGE_CURVE('',#82,#83,#176,.T.);
#100=EDGE_CURVE('',#83,#83,#69,.T.);
#101=EDGE_CURVE('',#84,#84,#70,.T.);
#102=EDGE_CURVE('',#85,#85,#71,.T.);
#103=EDGE_CURVE('',#85,#84,#177,.T.);
#104=EDGE_CURVE('',#85,#86,#72,.T.);
#105=EDGE_CURVE('',#86,#86,#73,.T.);
#106=EDGE_CURVE('',#87,#87,#74,.T.);
#107=EDGE_CURVE('',#87,#86,#178,.T.);
#108=EDGE_CURVE('',#88,#88,#75,.T.);
#109=EDGE_CURVE('',#88,#87,#76,.T.);
#110=EDGE_CURVE('',#77,#88,#179,.T.);
#111=ORIENTED_EDGE('',*,*,#89,.T.);
#112=ORIENTED_EDGE('',*,*,#90,.F.);
#113=ORIENTED_EDGE('',*,*,#90,.T.);
#114=ORIENTED_EDGE('',*,*,#91,.T.);
#115=ORIENTED_EDGE('',*,*,#92,.F.);
#116=ORIENTED_EDGE('',*,*,#91,.F.);
#117=ORIENTED_EDGE('',*,*,#92,.T.);
#118=ORIENTED_EDGE('',*,*,#93,.T.);
#119=ORIENTED_EDGE('',*,*,#94,.F.);
#120=ORIENTED_EDGE('',*,*,#93,.F.);
#121=ORIENTED_EDGE('',*,*,#94,.T.);
#122=ORIENTED_EDGE('',*,*,#95,.T.);
#123=ORIENTED_EDGE('',*,*,#96,.F.);
#124=ORIENTED_EDGE('',*,*,#95,.F.);
#125=ORIENTED_EDGE('',*,*,#97,.F.);
#126=ORIENTED_EDGE('',*,*,#98,.T.);
#127=ORIENTED_EDGE('',*,*,#96,.T.);
#128=ORIENTED_EDGE('',*,*,#98,.F.);
#129=ORIENTED_EDGE('',*,*,#97,.T.);
#130=ORIENTED_EDGE('',*,*,#99,.T.);
#131=ORIENTED_EDGE('',*,*,#100,.F.);
#132=ORIENTED_EDGE('',*,*,#99,.F.);
#133=ORIENTED_EDGE('',*,*,#101,.F.);
#134=ORIENTED_EDGE('',*,*,#100,.T.);
#135=ORIENTED_EDGE('',*,*,#102,.F.);
#136=ORIENTED_EDGE('',*,*,#103,.T.);
#137=ORIENTED_EDGE('',*,*,#101,.T.);
#138=ORIENTED_EDGE('',*,*,#103,.F.);
#139=ORIENTED_EDGE('',*,*,#102,.T.);
#140=ORIENTED_EDGE('',*,*,#104,.T.);
#141=ORIENTED_EDGE('',*,*,#105,.F.);
#142=ORIENTED_EDGE('',*,*,#104,.F.);
#143=ORIENTED_EDGE('',*,*,#106,.F.);
#144=ORIENTED_EDGE('',*,*,#107,.T.);
#145=ORIENTED_EDGE('',*,*,#105,.T.);
#146=ORIENTED_EDGE('',*,*,#107,.F.);
#147=ORIENTED_EDGE('',*,*,#108,.F.);
#148=ORIENTED_EDGE('',*,*,#109,.T.);
#149=ORIENTED_EDGE('',*,*,#106,.T.);
#150=ORIENTED_EDGE('',*,*,#109,.F.);
#151=ORIENTED_EDGE('',*,*,#89,.F.);
#152=ORIENTED_EDGE('',*,*,#110,.T.);
#153=ORIENTED_EDGE('',*,*,#108,.T.);
#154=ORIENTED_EDGE('',*,*,#110,.F.);
#155=PLANE('',#189);
#156=PLANE('',#204);
#157=ADVANCED_FACE('',(#35,#33),#155,.T.);
#158=ADVANCED_FACE('',(#36),#29,.F.);
#159=ADVANCED_FACE('',(#37),#25,.F.);
#160=ADVANCED_FACE('',(#38),#23,.F.);
#161=ADVANCED_FACE('',(#39),#26,.T.);
#162=ADVANCED_FACE('',(#40),#30,.F.);
#163=ADVANCED_FACE('',(#41,#34),#156,.T.);
#164=ADVANCED_FACE('',(#42),#31,.T.);
#165=ADVANCED_FACE('',(#43),#27,.F.);
#166=ADVANCED_FACE('',(#44),#24,.T.);
#167=ADVANCED_FACE('',(#45),#28,.T.);
#168=ADVANCED_FACE('',(#46),#32,.T.);
#169=CLOSED_SHELL('',(#157,#158,#159,#160,#161,#162,#163,#164,#165,#166,
#167,#168));
#170=STYLED_ITEM('',(#368),#172);
#171=STYLED_ITEM('',(#369),#22);
#172=TRIMMED_CURVE('12C2C',#173,(#290,PARAMETER_VALUE(0.)),(#291,
PARAMETER_VALUE(1.)),.T.,.PARAMETER.);
#173=LINE('',#289,#180);
#174=LINE('',#299,#181);
#175=LINE('',#307,#182);
#176=LINE('',#315,#183);
#177=LINE('',#323,#184);
#178=LINE('',#331,#185);
#179=LINE('',#337,#186);
#180=VECTOR('',#222,28.);
#181=VECTOR('',#231,74.2);
#182=VECTOR('',#242,66.8827876621298);
#183=VECTOR('',#253,59.2);
#184=VECTOR('',#264,60.);
#185=VECTOR('',#275,67.1953538964503);
#186=VECTOR('',#284,75.);
#187=AXIS2_PLACEMENT_3D('',#287,#218,#219);
#188=AXIS2_PLACEMENT_3D('',#288,#220,#221);
#189=AXIS2_PLACEMENT_3D('',#292,#223,#224);
#190=AXIS2_PLACEMENT_3D('',#294,#225,#226);
#191=AXIS2_PLACEMENT_3D('',#296,#227,#228);
#192=AXIS2_PLACEMENT_3D('',#297,#229,#230);
#193=AXIS2_PLACEMENT_3D('',#300,#232,#233);
#194=AXIS2_PLACEMENT_3D('',#301,#234,#235);
#195=AXIS2_PLACEMENT_3D('',#303,#236,#237);
#196=AXIS2_PLACEMENT_3D('',#304,#238,#239);
#197=AXIS2_PLACEMENT_3D('',#305,#240,#241);
#198=AXIS2_PLACEMENT_3D('',#308,#243,#244);
#199=AXIS2_PLACEMENT_3D('',#309,#245,#246);
#200=AXIS2_PLACEMENT_3D('',#311,#247,#248);
#201=AXIS2_PLACEMENT_3D('',#312,#249,#250);
#202=AXIS2_PLACEMENT_3D('',#313,#251,#252);
#203=AXIS2_PLACEMENT_3D('',#316,#254,#255);
#204=AXIS2_PLACEMENT_3D('',#317,#256,#257);
#205=AXIS2_PLACEMENT_3D('',#319,#258,#259);
#206=AXIS2_PLACEMENT_3D('',#320,#260,#261);
#207=AXIS2_PLACEMENT_3D('',#322,#262,#263);
#208=AXIS2_PLACEMENT_3D('',#324,#265,#266);
#209=AXIS2_PLACEMENT_3D('',#326,#267,#268);
#210=AXIS2_PLACEMENT_3D('',#327,#269,#270);
#211=AXIS2_PLACEMENT_3D('',#328,#271,#272);
#212=AXIS2_PLACEMENT_3D('',#330,#273,#274);
#213=AXIS2_PLACEMENT_3D('',#332,#276,#277);
#214=AXIS2_PLACEMENT_3D('',#334,#278,#279);
#215=AXIS2_PLACEMENT_3D('',#335,#280,#281);
#216=AXIS2_PLACEMENT_3D('',#336,#282,#283);
#217=AXIS2_PLACEMENT_3D('',#338,#285,#286);
#218=DIRECTION('axis',(0.,0.,1.));
#219=DIRECTION('refdir',(1.,0.,0.));
#220=DIRECTION('axis',(0.,0.,1.));
#221=DIRECTION('refdir',(1.,0.,0.));
#222=DIRECTION('',(-2.96059473233375E-16,-3.50604846764894E-32,-1.));
#223=DIRECTION('center_axis',(-3.06161699786838E-16,0.,-1.));
#224=DIRECTION('ref_axis',(-1.,0.,3.06161699786838E-16));
#225=DIRECTION('center_axis',(-3.06161699786838E-16,0.,-1.));
#226=DIRECTION('ref_axis',(1.,0.,-3.06161699786838E-16));
#227=DIRECTION('center_axis',(-3.06161699786838E-16,0.,-1.));
#228=DIRECTION('ref_axis',(1.,0.,-3.06161699786838E-16));
#229=DIRECTION('center_axis',(-3.06161699786838E-16,0.,-1.));
#230=DIRECTION('ref_axis',(-1.,0.,2.96059473233375E-16));
#231=DIRECTION('',(3.06161699786838E-16,0.,1.));
#232=DIRECTION('center_axis',(-3.06161699786838E-16,0.,-1.));
#233=DIRECTION('ref_axis',(1.,0.,-3.06161699786838E-16));
#234=DIRECTION('center_axis',(-3.06161699786838E-16,0.,-1.));
#235=DIRECTION('ref_axis',(-1.,0.,3.11221548681985E-16));
#236=DIRECTION('center_axis',(-1.22464679914735E-16,-1.,3.74939945665464E-32));
#237=DIRECTION('ref_axis',(1.,-1.22464679914735E-16,-3.11221548681985E-16));
#238=DIRECTION('center_axis',(-3.06161699786838E-16,0.,-1.));
#239=DIRECTION('ref_axis',(1.,0.,-3.06161699786838E-16));
#240=DIRECTION('center_axis',(-3.06161699786838E-16,0.,-1.));
#241=DIRECTION('ref_axis',(-1.,0.,2.96059473233375E-16));
#242=DIRECTION('',(-0.920514758473107,1.12730545253199E-16,0.390707792900522));
#243=DIRECTION('center_axis',(-3.06161699786838E-16,0.,-1.));
#244=DIRECTION('ref_axis',(1.,0.,-3.06161699786838E-16));
#245=DIRECTION('center_axis',(-3.06161699786838E-16,0.,-1.));
#246=DIRECTION('ref_axis',(-1.,0.,2.65921682544948E-16));
#247=DIRECTION('center_axis',(-3.06161699786838E-16,0.,-1.));
#248=DIRECTION('ref_axis',(1.,0.,-3.06161699786838E-16));
#249=DIRECTION('center_axis',(-1.22464679914735E-16,-1.,3.74939945665464E-32));
#250=DIRECTION('ref_axis',(1.,-1.22464679914735E-16,-3.19106019053937E-16));
#251=DIRECTION('center_axis',(-3.06161699786838E-16,0.,-1.));
#252=DIRECTION('ref_axis',(-1.,0.,2.96059473233375E-16));
#253=DIRECTION('',(3.06161699786838E-16,0.,1.));
#254=DIRECTION('center_axis',(-3.06161699786838E-16,0.,-1.));
#255=DIRECTION('ref_axis',(1.,0.,-3.06161699786838E-16));
#256=DIRECTION('center_axis',(3.06161699786838E-16,0.,1.));
#257=DIRECTION('ref_axis',(1.,0.,-3.06161699786838E-16));
#258=DIRECTION('center_axis',(-3.06161699786838E-16,0.,-1.));
#259=DIRECTION('ref_axis',(1.,0.,-3.06161699786838E-16));
#260=DIRECTION('center_axis',(-3.06161699786838E-16,0.,-1.));
#261=DIRECTION('ref_axis',(-1.,0.,2.96059473233375E-16));
#262=DIRECTION('center_axis',(-3.06161699786838E-16,0.,-1.));
#263=DIRECTION('ref_axis',(1.,0.,-3.06161699786838E-16));
#264=DIRECTION('',(3.06161699786838E-16,0.,1.));
#265=DIRECTION('center_axis',(-3.06161699786838E-16,0.,-1.));
#266=DIRECTION('ref_axis',(-1.,0.,2.69144975666705E-16));
#267=DIRECTION('center_axis',(-1.22464679914735E-16,-1.,3.74939945665464E-32));
#268=DIRECTION('ref_axis',(1.,-1.22464679914735E-16,-3.22973970800046E-16));
#269=DIRECTION('center_axis',(-3.06161699786838E-16,0.,-1.));
#270=DIRECTION('ref_axis',(1.,0.,-3.06161699786838E-16));
#271=DIRECTION('center_axis',(-3.06161699786838E-16,0.,-1.));
#272=DIRECTION('ref_axis',(-1.,0.,2.96059473233375E-16));
#273=DIRECTION('center_axis',(-3.06161699786838E-16,0.,-1.));
#274=DIRECTION('ref_axis',(1.,0.,-3.06161699786838E-16));
#275=DIRECTION('',(-0.920514758473107,1.12730545253199E-16,0.390707792900522));
#276=DIRECTION('center_axis',(-3.06161699786838E-16,0.,-1.));
#277=DIRECTION('ref_axis',(-1.,0.,3.0790185216271E-16));
#278=DIRECTION('center_axis',(-3.06161699786838E-16,0.,-1.));
#279=DIRECTION('ref_axis',(1.,0.,-3.06161699786838E-16));
#280=DIRECTION('center_axis',(-1.22464679914735E-16,-1.,3.74939945665464E-32));
#281=DIRECTION('ref_axis',(1.,-1.22464679914735E-16,-3.0790185216271E-16));
#282=DIRECTION('center_axis',(-3.06161699786838E-16,0.,-1.));
#283=DIRECTION('ref_axis',(-1.,0.,2.96059473233375E-16));
#284=DIRECTION('',(3.06161699786838E-16,0.,1.));
#285=DIRECTION('',(0.,0.,1.));
#286=DIRECTION('',(1.,0.,0.));
#287=CARTESIAN_POINT('',(0.,0.,0.));
#288=CARTESIAN_POINT('',(0.,0.,0.));
#289=CARTESIAN_POINT('',(8.2896652505345E-15,9.81693570941704E-31,28.));
#290=CARTESIAN_POINT('',(8.2896652505345E-15,9.81693570941704E-31,28.));
#291=CARTESIAN_POINT('',(0.,0.,0.));
#292=CARTESIAN_POINT('Origin',(-74.2,0.,2.35197785698004E-14));
#293=CARTESIAN_POINT('',(75.,-9.18485099360515E-15,-2.19824158875781E-14));
#294=CARTESIAN_POINT('Origin',(-3.69778549322349E-30,0.,0.));
#295=CARTESIAN_POINT('',(74.2,-9.08687924967336E-15,-2.1094237467878E-14));
#296=CARTESIAN_POINT('Origin',(-3.20474742746036E-30,0.,1.11022302462516E-15));
#297=CARTESIAN_POINT('Origin',(1.99005104861444E-15,0.,6.5));
#298=CARTESIAN_POINT('',(74.2,-9.08687924967336E-15,13.));
#299=CARTESIAN_POINT('',(74.2,-9.08687924967336E-15,6.49999999999998));
#300=CARTESIAN_POINT('Origin',(3.98010209722889E-15,0.,13.));
#301=CARTESIAN_POINT('Origin',(3.98010209722889E-15,0.,13.));
#302=CARTESIAN_POINT('',(72.2502649372817,-8.84810556929902E-15,15.9456472271139));
#303=CARTESIAN_POINT('Origin',(71.,-8.69499227394621E-15,13.));
#304=CARTESIAN_POINT('Origin',(4.88194645925448E-15,0.,15.9456472271139));
#305=CARTESIAN_POINT('Origin',(5.5794435371166E-15,0.,18.2238455724581));
#306=CARTESIAN_POINT('',(61.515310386978,-7.53345279639685E-15,20.5020439178022));
#307=CARTESIAN_POINT('',(66.8827876621298,-8.19077918284794E-15,18.223845572458));
#308=CARTESIAN_POINT('Origin',(6.27694061497872E-15,0.,20.5020439178022));
#309=CARTESIAN_POINT('Origin',(7.34788079488412E-15,0.,24.));
#310=CARTESIAN_POINT('',(59.2,-7.24990905095233E-15,24.));
#311=CARTESIAN_POINT('Origin',(7.34788079488412E-15,0.,24.));
#312=CARTESIAN_POINT('Origin',(63.,-7.71527483462832E-15,24.));
#313=CARTESIAN_POINT('Origin',(7.96020419445779E-15,0.,26.));
#314=CARTESIAN_POINT('',(59.2,-7.24990905095233E-15,28.));
#315=CARTESIAN_POINT('',(59.2,-7.24990905095233E-15,26.));
#316=CARTESIAN_POINT('Origin',(8.57252759403147E-15,0.,28.));
#317=CARTESIAN_POINT('Origin',(-60.,0.,28.));
#318=CARTESIAN_POINT('',(60.,-7.34788079488412E-15,28.));
#319=CARTESIAN_POINT('Origin',(8.57252759403147E-15,0.,28.));
#320=CARTESIAN_POINT('Origin',(7.96020419445779E-15,0.,26.));
#321=CARTESIAN_POINT('',(60.,-7.34788079488412E-15,24.));
#322=CARTESIAN_POINT('Origin',(7.34788079488412E-15,0.,24.));
#323=CARTESIAN_POINT('',(60.,-7.34788079488412E-15,26.));
#324=CARTESIAN_POINT('Origin',(7.34788079488412E-15,0.,24.));
#325=CARTESIAN_POINT('',(61.8278766212984,-7.57173112023506E-15,21.2384557245807));
#326=CARTESIAN_POINT('Origin',(63.,-7.71527483462832E-15,24.));
#327=CARTESIAN_POINT('Origin',(6.50240170548512E-15,0.,21.2384557245807));
#328=CARTESIAN_POINT('Origin',(5.804904627623E-15,0.,18.9602573792366));
#329=CARTESIAN_POINT('',(72.5628311716021,-8.88638389313723E-15,16.6820590338924));
#330=CARTESIAN_POINT('Origin',(5.10740754976088E-15,0.,16.6820590338924));
#331=CARTESIAN_POINT('',(67.1953538964503,-8.22905750668614E-15,18.9602573792365));
#332=CARTESIAN_POINT('Origin',(3.98010209722889E-15,0.,13.));
#333=CARTESIAN_POINT('',(75.,-9.18485099360515E-15,13.));
#334=CARTESIAN_POINT('Origin',(3.98010209722889E-15,0.,13.));
#335=CARTESIAN_POINT('Origin',(71.,-8.69499227394621E-15,13.));
#336=CARTESIAN_POINT('Origin',(1.99005104861444E-15,0.,6.5));
#337=CARTESIAN_POINT('',(75.,-9.18485099360515E-15,6.49999999999998));
#338=CARTESIAN_POINT('',(0.,0.,0.));
#339=UNCERTAINTY_MEASURE_WITH_UNIT(LENGTH_MEASURE(0.001),#345,
'DISTANCE_ACCURACY_VALUE',
'Maximum model space distance between geometric entities at asserted c
onnectivities');
#340=UNCERTAINTY_MEASURE_WITH_UNIT(LENGTH_MEASURE(0.001),#345,
'DISTANCE_ACCURACY_VALUE',
'Maximum model space distance between geometric entities at asserted c
onnectivities');
#341=UNCERTAINTY_MEASURE_WITH_UNIT(LENGTH_MEASURE(0.001),#345,
'DISTANCE_ACCURACY_VALUE',
'Maximum model space distance between geometric entities at asserted c
onnectivities');
#342=(
GEOMETRIC_REPRESENTATION_CONTEXT(3)
GLOBAL_UNCERTAINTY_ASSIGNED_CONTEXT((#339))
GLOBAL_UNIT_ASSIGNED_CONTEXT((#345,#346,#347))
REPRESENTATION_CONTEXT('','3D')
);
#343=(
GEOMETRIC_REPRESENTATION_CONTEXT(3)
GLOBAL_UNCERTAINTY_ASSIGNED_CONTEXT((#340))
GLOBAL_UNIT_ASSIGNED_CONTEXT((#345,#346,#347))
REPRESENTATION_CONTEXT('','3D')
);
#344=(
GEOMETRIC_REPRESENTATION_CONTEXT(3)
GLOBAL_UNCERTAINTY_ASSIGNED_CONTEXT((#341))
GLOBAL_UNIT_ASSIGNED_CONTEXT((#345,#346,#347))
REPRESENTATION_CONTEXT('','3D')
);
#345=(
LENGTH_UNIT()
NAMED_UNIT(*)
SI_UNIT(.CENTI.,.METRE.)
);
#346=(
NAMED_UNIT(*)
PLANE_ANGLE_UNIT()
SI_UNIT($,.RADIAN.)
);
#347=(
NAMED_UNIT(*)
SI_UNIT($,.STERADIAN.)
SOLID_ANGLE_UNIT()
);
#348=SHAPE_DEFINITION_REPRESENTATION(#350,#353);
#349=SHAPE_DEFINITION_REPRESENTATION(#351,#354);
#350=PRODUCT_DEFINITION_SHAPE('',$,#356);
#351=PRODUCT_DEFINITION_SHAPE('',$,#357);
#352=PRODUCT_DEFINITION_SHAPE($,$,#21);
#353=SHAPE_REPRESENTATION('',(#187,#217),#342);
#354=SHAPE_REPRESENTATION('',(#188),#343);
#355=PRODUCT_DEFINITION_CONTEXT('part definition',#363,'design');
#356=PRODUCT_DEFINITION('Product','Product',#358,#355);
#357=PRODUCT_DEFINITION('*S0','*S0',#359,#355);
#358=PRODUCT_DEFINITION_FORMATION('',$,#365);
#359=PRODUCT_DEFINITION_FORMATION('',$,#366);
#360=PRODUCT_RELATED_PRODUCT_CATEGORY('Product','Product',(#365));
#361=PRODUCT_RELATED_PRODUCT_CATEGORY('*S0','*S0',(#366));
#362=APPLICATION_PROTOCOL_DEFINITION('international standard',
'automotive_design',2009,#363);
#363=APPLICATION_CONTEXT(
'Core Data for Automotive Mechanical Design Process');
#364=PRODUCT_CONTEXT('part definition',#363,'mechanical');
#365=PRODUCT('Product','Product',$,(#364));
#366=PRODUCT('*S0','*S0',$,(#364));
#367=PRESENTATION_STYLE_ASSIGNMENT((#370));
#368=PRESENTATION_STYLE_ASSIGNMENT((#371));
#369=PRESENTATION_STYLE_ASSIGNMENT((#372));
#370=SURFACE_STYLE_USAGE(.BOTH.,#373);
#371=SURFACE_STYLE_USAGE(.BOTH.,#374);
#372=SURFACE_STYLE_USAGE(.BOTH.,#375);
#373=SURFACE_SIDE_STYLE('',(#376));
#374=SURFACE_SIDE_STYLE('',(#377));
#375=SURFACE_SIDE_STYLE('',(#378));
#376=SURFACE_STYLE_FILL_AREA(#379);
#377=SURFACE_STYLE_FILL_AREA(#380);
#378=SURFACE_STYLE_FILL_AREA(#381);
#379=FILL_AREA_STYLE('',(#382));
#380=FILL_AREA_STYLE('',(#383));
#381=FILL_AREA_STYLE('',(#384));
#382=FILL_AREA_STYLE_COLOUR('',#385);
#383=FILL_AREA_STYLE_COLOUR('',#386);
#384=FILL_AREA_STYLE_COLOUR('',#387);
#385=COLOUR_RGB('',1.,1.,1.);
#386=COLOUR_RGB('',1.,0.,1.);
#387=COLOUR_RGB('',0.870588235294118,0.870588235294118,0.870588235294118);
ENDSEC;
END-ISO-10303-21;
