ISO-10303-21;
HEADER;
/* Generated by software containing ST-Developer
 * from STEP Tools, Inc. (www.steptools.com) 
 */

FILE_DESCRIPTION(
/* description */ (''),
/* implementation_level */ '2;1');

FILE_NAME(
/* name */ '55870.100X_3D.stp',
/* time_stamp */ '2025-05-15T14:31:51+02:00',
/* author */ ('c.rudolph'),
/* organization */ (''),
/* preprocessor_version */ 'ST-DEVELOPER v20',
/* originating_system */ 'AutoCAD Mechanical',
/* authorisation */ '');

FILE_SCHEMA (('AUTOMOTIVE_DESIGN { 1 0 10303 214 3 1 1 }'));
ENDSEC;

DATA;
#10=MECHANICAL_DESIGN_GEOMETRIC_PRESENTATION_REPRESENTATION('',(#168,#169),
#334);
#11=PRESENTATION_LAYER_ASSIGNMENT('2','DEFPOINTS',(#170));
#12=PRESENTATION_LAYER_ASSIGNMENT('3','Material (Verzinkt)',(#22));
#13=ADVANCED_BREP_SHAPE_REPRESENTATION('',(#22),#332);
#14=SHAPE_REPRESENTATION_RELATIONSHIP('SRR','None',#343,#16);
#15=SHAPE_REPRESENTATION_RELATIONSHIP('SRR','None',#343,#13);
#16=GEOMETRICALLY_BOUNDED_SURFACE_SHAPE_REPRESENTATION('',(#17),#332);
#17=GEOMETRIC_SET('GEOSET',(#170));
#18=ITEM_DEFINED_TRANSFORMATION($,$,#182,#211);
#19=(
REPRESENTATION_RELATIONSHIP($,$,#344,#343)
REPRESENTATION_RELATIONSHIP_WITH_TRANSFORMATION(#18)
SHAPE_REPRESENTATION_RELATIONSHIP()
);
#20=CONTEXT_DEPENDENT_SHAPE_REPRESENTATION(#19,#342);
#21=NEXT_ASSEMBLY_USAGE_OCCURRENCE('712A','712A','712A',#346,#347,
'712A');
#22=MANIFOLD_SOLID_BREP('136DA',#167);
#23=CYLINDRICAL_SURFACE('',#189,58.35);
#24=CYLINDRICAL_SURFACE('',#193,59.);
#25=CYLINDRICAL_SURFACE('',#203,50.);
#26=CYLINDRICAL_SURFACE('',#207,49.35);
#27=TOROIDAL_SURFACE('',#186,55.5,2.85);
#28=TOROIDAL_SURFACE('',#195,55.5,3.5);
#29=TOROIDAL_SURFACE('',#200,54.5,4.5);
#30=TOROIDAL_SURFACE('',#209,54.5,5.15);
#31=FACE_BOUND('',#48,.T.);
#32=FACE_BOUND('',#52,.T.);
#33=FACE_BOUND('',#56,.T.);
#34=FACE_BOUND('',#60,.T.);
#35=FACE_OUTER_BOUND('',#47,.T.);
#36=FACE_OUTER_BOUND('',#49,.T.);
#37=FACE_OUTER_BOUND('',#50,.T.);
#38=FACE_OUTER_BOUND('',#51,.T.);
#39=FACE_OUTER_BOUND('',#53,.T.);
#40=FACE_OUTER_BOUND('',#54,.T.);
#41=FACE_OUTER_BOUND('',#55,.T.);
#42=FACE_OUTER_BOUND('',#57,.T.);
#43=FACE_OUTER_BOUND('',#58,.T.);
#44=FACE_OUTER_BOUND('',#59,.T.);
#45=FACE_OUTER_BOUND('',#61,.T.);
#46=FACE_OUTER_BOUND('',#62,.T.);
#47=EDGE_LOOP('',(#111));
#48=EDGE_LOOP('',(#112));
#49=EDGE_LOOP('',(#113,#114,#115,#116));
#50=EDGE_LOOP('',(#117,#118,#119,#120));
#51=EDGE_LOOP('',(#121));
#52=EDGE_LOOP('',(#122));
#53=EDGE_LOOP('',(#123,#124,#125,#126));
#54=EDGE_LOOP('',(#127,#128,#129,#130));
#55=EDGE_LOOP('',(#131));
#56=EDGE_LOOP('',(#132));
#57=EDGE_LOOP('',(#133,#134,#135,#136));
#58=EDGE_LOOP('',(#137,#138,#139,#140));
#59=EDGE_LOOP('',(#141));
#60=EDGE_LOOP('',(#142));
#61=EDGE_LOOP('',(#143,#144,#145,#146));
#62=EDGE_LOOP('',(#147,#148,#149,#150));
#63=CIRCLE('',#184,55.5);
#64=CIRCLE('',#185,54.5);
#65=CIRCLE('',#187,2.85);
#66=CIRCLE('',#188,58.35);
#67=CIRCLE('',#190,58.35);
#68=CIRCLE('',#192,59.);
#69=CIRCLE('',#194,59.);
#70=CIRCLE('',#196,55.5);
#71=CIRCLE('',#197,3.5);
#72=CIRCLE('',#199,54.5);
#73=CIRCLE('',#201,4.5);
#74=CIRCLE('',#202,50.);
#75=CIRCLE('',#204,50.);
#76=CIRCLE('',#206,49.35);
#77=CIRCLE('',#208,49.35);
#78=CIRCLE('',#210,5.15);
#79=VERTEX_POINT('',#285);
#80=VERTEX_POINT('',#287);
#81=VERTEX_POINT('',#290);
#82=VERTEX_POINT('',#294);
#83=VERTEX_POINT('',#298);
#84=VERTEX_POINT('',#301);
#85=VERTEX_POINT('',#305);
#86=VERTEX_POINT('',#309);
#87=VERTEX_POINT('',#312);
#88=VERTEX_POINT('',#316);
#89=VERTEX_POINT('',#320);
#90=VERTEX_POINT('',#323);
#91=EDGE_CURVE('',#79,#79,#63,.T.);
#92=EDGE_CURVE('',#80,#80,#64,.T.);
#93=EDGE_CURVE('',#79,#81,#65,.T.);
#94=EDGE_CURVE('',#81,#81,#66,.T.);
#95=EDGE_CURVE('',#81,#82,#172,.T.);
#96=EDGE_CURVE('',#82,#82,#67,.T.);
#97=EDGE_CURVE('',#83,#83,#68,.T.);
#98=EDGE_CURVE('',#84,#84,#69,.T.);
#99=EDGE_CURVE('',#84,#83,#173,.T.);
#100=EDGE_CURVE('',#85,#85,#70,.T.);
#101=EDGE_CURVE('',#85,#84,#71,.T.);
#102=EDGE_CURVE('',#86,#86,#72,.T.);
#103=EDGE_CURVE('',#86,#87,#73,.T.);
#104=EDGE_CURVE('',#87,#87,#74,.T.);
#105=EDGE_CURVE('',#88,#88,#75,.T.);
#106=EDGE_CURVE('',#88,#87,#174,.T.);
#107=EDGE_CURVE('',#89,#89,#76,.T.);
#108=EDGE_CURVE('',#89,#90,#175,.T.);
#109=EDGE_CURVE('',#90,#90,#77,.T.);
#110=EDGE_CURVE('',#80,#90,#78,.T.);
#111=ORIENTED_EDGE('',*,*,#91,.F.);
#112=ORIENTED_EDGE('',*,*,#92,.T.);
#113=ORIENTED_EDGE('',*,*,#91,.T.);
#114=ORIENTED_EDGE('',*,*,#93,.T.);
#115=ORIENTED_EDGE('',*,*,#94,.F.);
#116=ORIENTED_EDGE('',*,*,#93,.F.);
#117=ORIENTED_EDGE('',*,*,#94,.T.);
#118=ORIENTED_EDGE('',*,*,#95,.T.);
#119=ORIENTED_EDGE('',*,*,#96,.F.);
#120=ORIENTED_EDGE('',*,*,#95,.F.);
#121=ORIENTED_EDGE('',*,*,#97,.F.);
#122=ORIENTED_EDGE('',*,*,#96,.T.);
#123=ORIENTED_EDGE('',*,*,#98,.F.);
#124=ORIENTED_EDGE('',*,*,#99,.T.);
#125=ORIENTED_EDGE('',*,*,#97,.T.);
#126=ORIENTED_EDGE('',*,*,#99,.F.);
#127=ORIENTED_EDGE('',*,*,#100,.F.);
#128=ORIENTED_EDGE('',*,*,#101,.T.);
#129=ORIENTED_EDGE('',*,*,#98,.T.);
#130=ORIENTED_EDGE('',*,*,#101,.F.);
#131=ORIENTED_EDGE('',*,*,#100,.T.);
#132=ORIENTED_EDGE('',*,*,#102,.F.);
#133=ORIENTED_EDGE('',*,*,#102,.T.);
#134=ORIENTED_EDGE('',*,*,#103,.T.);
#135=ORIENTED_EDGE('',*,*,#104,.F.);
#136=ORIENTED_EDGE('',*,*,#103,.F.);
#137=ORIENTED_EDGE('',*,*,#105,.F.);
#138=ORIENTED_EDGE('',*,*,#106,.T.);
#139=ORIENTED_EDGE('',*,*,#104,.T.);
#140=ORIENTED_EDGE('',*,*,#106,.F.);
#141=ORIENTED_EDGE('',*,*,#105,.T.);
#142=ORIENTED_EDGE('',*,*,#107,.F.);
#143=ORIENTED_EDGE('',*,*,#107,.T.);
#144=ORIENTED_EDGE('',*,*,#108,.T.);
#145=ORIENTED_EDGE('',*,*,#109,.F.);
#146=ORIENTED_EDGE('',*,*,#108,.F.);
#147=ORIENTED_EDGE('',*,*,#92,.F.);
#148=ORIENTED_EDGE('',*,*,#110,.T.);
#149=ORIENTED_EDGE('',*,*,#109,.T.);
#150=ORIENTED_EDGE('',*,*,#110,.F.);
#151=PLANE('',#183);
#152=PLANE('',#191);
#153=PLANE('',#198);
#154=PLANE('',#205);
#155=ADVANCED_FACE('',(#35,#31),#151,.T.);
#156=ADVANCED_FACE('',(#36),#27,.F.);
#157=ADVANCED_FACE('',(#37),#23,.F.);
#158=ADVANCED_FACE('',(#38,#32),#152,.T.);
#159=ADVANCED_FACE('',(#39),#24,.T.);
#160=ADVANCED_FACE('',(#40),#28,.T.);
#161=ADVANCED_FACE('',(#41,#33),#153,.T.);
#162=ADVANCED_FACE('',(#42),#29,.F.);
#163=ADVANCED_FACE('',(#43),#25,.T.);
#164=ADVANCED_FACE('',(#44,#34),#154,.T.);
#165=ADVANCED_FACE('',(#45),#26,.F.);
#166=ADVANCED_FACE('',(#46),#30,.T.);
#167=CLOSED_SHELL('',(#155,#156,#157,#158,#159,#160,#161,#162,#163,#164,
#165,#166));
#168=STYLED_ITEM('',(#358),#170);
#169=STYLED_ITEM('',(#359),#22);
#170=TRIMMED_CURVE('12C2C',#171,(#282,PARAMETER_VALUE(0.)),(#283,
PARAMETER_VALUE(1.)),.T.,.PARAMETER.);
#171=LINE('',#281,#176);
#172=LINE('',#295,#177);
#173=LINE('',#303,#178);
#174=LINE('',#318,#179);
#175=LINE('',#324,#180);
#176=VECTOR('',#216,23.);
#177=VECTOR('',#231,58.35);
#178=VECTOR('',#242,59.);
#179=VECTOR('',#263,50.);
#180=VECTOR('',#270,49.35);
#181=AXIS2_PLACEMENT_3D('',#279,#212,#213);
#182=AXIS2_PLACEMENT_3D('',#280,#214,#215);
#183=AXIS2_PLACEMENT_3D('',#284,#217,#218);
#184=AXIS2_PLACEMENT_3D('',#286,#219,#220);
#185=AXIS2_PLACEMENT_3D('',#288,#221,#222);
#186=AXIS2_PLACEMENT_3D('',#289,#223,#224);
#187=AXIS2_PLACEMENT_3D('',#291,#225,#226);
#188=AXIS2_PLACEMENT_3D('',#292,#227,#228);
#189=AXIS2_PLACEMENT_3D('',#293,#229,#230);
#190=AXIS2_PLACEMENT_3D('',#296,#232,#233);
#191=AXIS2_PLACEMENT_3D('',#297,#234,#235);
#192=AXIS2_PLACEMENT_3D('',#299,#236,#237);
#193=AXIS2_PLACEMENT_3D('',#300,#238,#239);
#194=AXIS2_PLACEMENT_3D('',#302,#240,#241);
#195=AXIS2_PLACEMENT_3D('',#304,#243,#244);
#196=AXIS2_PLACEMENT_3D('',#306,#245,#246);
#197=AXIS2_PLACEMENT_3D('',#307,#247,#248);
#198=AXIS2_PLACEMENT_3D('',#308,#249,#250);
#199=AXIS2_PLACEMENT_3D('',#310,#251,#252);
#200=AXIS2_PLACEMENT_3D('',#311,#253,#254);
#201=AXIS2_PLACEMENT_3D('',#313,#255,#256);
#202=AXIS2_PLACEMENT_3D('',#314,#257,#258);
#203=AXIS2_PLACEMENT_3D('',#315,#259,#260);
#204=AXIS2_PLACEMENT_3D('',#317,#261,#262);
#205=AXIS2_PLACEMENT_3D('',#319,#264,#265);
#206=AXIS2_PLACEMENT_3D('',#321,#266,#267);
#207=AXIS2_PLACEMENT_3D('',#322,#268,#269);
#208=AXIS2_PLACEMENT_3D('',#325,#271,#272);
#209=AXIS2_PLACEMENT_3D('',#326,#273,#274);
#210=AXIS2_PLACEMENT_3D('',#327,#275,#276);
#211=AXIS2_PLACEMENT_3D('',#328,#277,#278);
#212=DIRECTION('axis',(0.,0.,1.));
#213=DIRECTION('refdir',(1.,0.,0.));
#214=DIRECTION('axis',(0.,0.,1.));
#215=DIRECTION('refdir',(1.,0.,0.));
#216=DIRECTION('',(0.,-2.30825087784525E-17,-1.));
#217=DIRECTION('center_axis',(0.,0.,-1.));
#218=DIRECTION('ref_axis',(-1.,0.,0.));
#219=DIRECTION('center_axis',(0.,0.,1.));
#220=DIRECTION('ref_axis',(1.,0.,0.));
#221=DIRECTION('center_axis',(0.,0.,1.));
#222=DIRECTION('ref_axis',(1.,0.,0.));
#223=DIRECTION('center_axis',(0.,0.,1.));
#224=DIRECTION('ref_axis',(1.,0.,0.));
#225=DIRECTION('center_axis',(1.22464679914735E-16,-1.,0.));
#226=DIRECTION('ref_axis',(-1.,-1.22464679914735E-16,0.));
#227=DIRECTION('center_axis',(0.,0.,1.));
#228=DIRECTION('ref_axis',(1.,0.,0.));
#229=DIRECTION('center_axis',(0.,0.,1.));
#230=DIRECTION('ref_axis',(1.,0.,0.));
#231=DIRECTION('',(0.,0.,-1.));
#232=DIRECTION('center_axis',(0.,0.,1.));
#233=DIRECTION('ref_axis',(1.,0.,0.));
#234=DIRECTION('center_axis',(0.,0.,-1.));
#235=DIRECTION('ref_axis',(-1.,0.,0.));
#236=DIRECTION('center_axis',(0.,0.,1.));
#237=DIRECTION('ref_axis',(1.,0.,0.));
#238=DIRECTION('center_axis',(0.,0.,1.));
#239=DIRECTION('ref_axis',(1.,0.,0.));
#240=DIRECTION('center_axis',(0.,0.,1.));
#241=DIRECTION('ref_axis',(1.,0.,0.));
#242=DIRECTION('',(0.,0.,-1.));
#243=DIRECTION('center_axis',(0.,0.,1.));
#244=DIRECTION('ref_axis',(1.,0.,0.));
#245=DIRECTION('center_axis',(0.,0.,1.));
#246=DIRECTION('ref_axis',(1.,0.,0.));
#247=DIRECTION('center_axis',(1.22464679914735E-16,-1.,0.));
#248=DIRECTION('ref_axis',(-1.,-1.22464679914735E-16,0.));
#249=DIRECTION('center_axis',(0.,0.,1.));
#250=DIRECTION('ref_axis',(1.,0.,0.));
#251=DIRECTION('center_axis',(0.,0.,1.));
#252=DIRECTION('ref_axis',(1.,0.,0.));
#253=DIRECTION('center_axis',(0.,0.,1.));
#254=DIRECTION('ref_axis',(1.,0.,0.));
#255=DIRECTION('center_axis',(1.22464679914735E-16,-1.,0.));
#256=DIRECTION('ref_axis',(-1.,-1.22464679914735E-16,0.));
#257=DIRECTION('center_axis',(0.,0.,1.));
#258=DIRECTION('ref_axis',(1.,0.,0.));
#259=DIRECTION('center_axis',(0.,0.,1.));
#260=DIRECTION('ref_axis',(1.,0.,0.));
#261=DIRECTION('center_axis',(0.,0.,1.));
#262=DIRECTION('ref_axis',(1.,0.,0.));
#263=DIRECTION('',(0.,0.,-1.));
#264=DIRECTION('center_axis',(0.,0.,1.));
#265=DIRECTION('ref_axis',(1.,0.,0.));
#266=DIRECTION('center_axis',(0.,0.,1.));
#267=DIRECTION('ref_axis',(1.,0.,0.));
#268=DIRECTION('center_axis',(0.,0.,1.));
#269=DIRECTION('ref_axis',(1.,0.,0.));
#270=DIRECTION('',(0.,0.,-1.));
#271=DIRECTION('center_axis',(0.,0.,1.));
#272=DIRECTION('ref_axis',(1.,0.,0.));
#273=DIRECTION('center_axis',(0.,0.,1.));
#274=DIRECTION('ref_axis',(1.,0.,0.));
#275=DIRECTION('center_axis',(1.22464679914735E-16,-1.,0.));
#276=DIRECTION('ref_axis',(-1.,-1.22464679914735E-16,0.));
#277=DIRECTION('',(0.,0.,1.));
#278=DIRECTION('',(1.,0.,0.));
#279=CARTESIAN_POINT('',(0.,0.,0.));
#280=CARTESIAN_POINT('',(0.,0.,0.));
#281=CARTESIAN_POINT('',(0.,5.30897701904408E-16,23.));
#282=CARTESIAN_POINT('',(0.,5.30897701904408E-16,23.));
#283=CARTESIAN_POINT('',(0.,0.,0.));
#284=CARTESIAN_POINT('Origin',(55.5,3.5527136788005E-15,14.85));
#285=CARTESIAN_POINT('',(-55.5,-3.24407605646731E-15,14.85));
#286=CARTESIAN_POINT('Origin',(0.,3.5527136788005E-15,14.85));
#287=CARTESIAN_POINT('',(-54.5,-3.12161137655257E-15,14.85));
#288=CARTESIAN_POINT('Origin',(0.,3.5527136788005E-15,14.85));
#289=CARTESIAN_POINT('Origin',(0.,3.5527136788005E-15,12.));
#290=CARTESIAN_POINT('',(-58.35,-3.59310039422431E-15,12.));
#291=CARTESIAN_POINT('Origin',(-55.5,-3.24407605646731E-15,12.));
#292=CARTESIAN_POINT('Origin',(0.,3.5527136788005E-15,12.));
#293=CARTESIAN_POINT('Origin',(0.,3.5527136788005E-15,5.99999999999999));
#294=CARTESIAN_POINT('',(-58.35,-3.59310039422431E-15,0.));
#295=CARTESIAN_POINT('',(-58.35,-3.59310039422431E-15,5.99999999999999));
#296=CARTESIAN_POINT('Origin',(0.,3.5527136788005E-15,0.));
#297=CARTESIAN_POINT('Origin',(59.,3.5527136788005E-15,0.));
#298=CARTESIAN_POINT('',(-59.,-3.67270243616888E-15,0.));
#299=CARTESIAN_POINT('Origin',(0.,3.5527136788005E-15,0.));
#300=CARTESIAN_POINT('Origin',(0.,3.5527136788005E-15,5.99999999999999));
#301=CARTESIAN_POINT('',(-59.,-3.67270243616888E-15,12.));
#302=CARTESIAN_POINT('Origin',(0.,3.5527136788005E-15,12.));
#303=CARTESIAN_POINT('',(-59.,-3.67270243616888E-15,5.99999999999999));
#304=CARTESIAN_POINT('Origin',(0.,3.5527136788005E-15,12.));
#305=CARTESIAN_POINT('',(-55.5,-3.24407605646731E-15,15.5));
#306=CARTESIAN_POINT('Origin',(0.,3.5527136788005E-15,15.5));
#307=CARTESIAN_POINT('Origin',(-55.5,-3.24407605646731E-15,12.));
#308=CARTESIAN_POINT('Origin',(54.5,3.5527136788005E-15,15.5));
#309=CARTESIAN_POINT('',(-54.5,-3.12161137655257E-15,15.5));
#310=CARTESIAN_POINT('Origin',(0.,3.5527136788005E-15,15.5));
#311=CARTESIAN_POINT('Origin',(0.,3.5527136788005E-15,20.));
#312=CARTESIAN_POINT('',(-50.,-2.57052031693627E-15,20.));
#313=CARTESIAN_POINT('Origin',(-54.5,-3.12161137655257E-15,20.));
#314=CARTESIAN_POINT('Origin',(0.,3.5527136788005E-15,20.));
#315=CARTESIAN_POINT('Origin',(0.,3.5527136788005E-15,21.5));
#316=CARTESIAN_POINT('',(-50.,-2.57052031693627E-15,23.));
#317=CARTESIAN_POINT('Origin',(0.,3.5527136788005E-15,23.));
#318=CARTESIAN_POINT('',(-50.,-2.57052031693627E-15,21.5));
#319=CARTESIAN_POINT('Origin',(49.35,3.5527136788005E-15,23.));
#320=CARTESIAN_POINT('',(-49.35,-2.49091827499169E-15,23.));
#321=CARTESIAN_POINT('Origin',(0.,3.5527136788005E-15,23.));
#322=CARTESIAN_POINT('Origin',(0.,3.5527136788005E-15,21.5));
#323=CARTESIAN_POINT('',(-49.35,-2.49091827499169E-15,20.));
#324=CARTESIAN_POINT('',(-49.35,-2.49091827499169E-15,21.5));
#325=CARTESIAN_POINT('Origin',(0.,3.5527136788005E-15,20.));
#326=CARTESIAN_POINT('Origin',(0.,3.5527136788005E-15,20.));
#327=CARTESIAN_POINT('Origin',(-54.5,-3.12161137655257E-15,20.));
#328=CARTESIAN_POINT('',(0.,0.,0.));
#329=UNCERTAINTY_MEASURE_WITH_UNIT(LENGTH_MEASURE(0.001),#335,
'DISTANCE_ACCURACY_VALUE',
'Maximum model space distance between geometric entities at asserted c
onnectivities');
#330=UNCERTAINTY_MEASURE_WITH_UNIT(LENGTH_MEASURE(0.001),#335,
'DISTANCE_ACCURACY_VALUE',
'Maximum model space distance between geometric entities at asserted c
onnectivities');
#331=UNCERTAINTY_MEASURE_WITH_UNIT(LENGTH_MEASURE(0.001),#335,
'DISTANCE_ACCURACY_VALUE',
'Maximum model space distance between geometric entities at asserted c
onnectivities');
#332=(
GEOMETRIC_REPRESENTATION_CONTEXT(3)
GLOBAL_UNCERTAINTY_ASSIGNED_CONTEXT((#329))
GLOBAL_UNIT_ASSIGNED_CONTEXT((#335,#336,#337))
REPRESENTATION_CONTEXT('','3D')
);
#333=(
GEOMETRIC_REPRESENTATION_CONTEXT(3)
GLOBAL_UNCERTAINTY_ASSIGNED_CONTEXT((#330))
GLOBAL_UNIT_ASSIGNED_CONTEXT((#335,#336,#337))
REPRESENTATION_CONTEXT('','3D')
);
#334=(
GEOMETRIC_REPRESENTATION_CONTEXT(3)
GLOBAL_UNCERTAINTY_ASSIGNED_CONTEXT((#331))
GLOBAL_UNIT_ASSIGNED_CONTEXT((#335,#336,#337))
REPRESENTATION_CONTEXT('','3D')
);
#335=(
LENGTH_UNIT()
NAMED_UNIT(*)
SI_UNIT(.CENTI.,.METRE.)
);
#336=(
NAMED_UNIT(*)
PLANE_ANGLE_UNIT()
SI_UNIT($,.RADIAN.)
);
#337=(
NAMED_UNIT(*)
SI_UNIT($,.STERADIAN.)
SOLID_ANGLE_UNIT()
);
#338=SHAPE_DEFINITION_REPRESENTATION(#340,#343);
#339=SHAPE_DEFINITION_REPRESENTATION(#341,#344);
#340=PRODUCT_DEFINITION_SHAPE('',$,#346);
#341=PRODUCT_DEFINITION_SHAPE('',$,#347);
#342=PRODUCT_DEFINITION_SHAPE($,$,#21);
#343=SHAPE_REPRESENTATION('',(#181,#211),#332);
#344=SHAPE_REPRESENTATION('',(#182),#333);
#345=PRODUCT_DEFINITION_CONTEXT('part definition',#353,'design');
#346=PRODUCT_DEFINITION('Product','Product',#348,#345);
#347=PRODUCT_DEFINITION('*S0','*S0',#349,#345);
#348=PRODUCT_DEFINITION_FORMATION('',$,#355);
#349=PRODUCT_DEFINITION_FORMATION('',$,#356);
#350=PRODUCT_RELATED_PRODUCT_CATEGORY('Product','Product',(#355));
#351=PRODUCT_RELATED_PRODUCT_CATEGORY('*S0','*S0',(#356));
#352=APPLICATION_PROTOCOL_DEFINITION('international standard',
'automotive_design',2009,#353);
#353=APPLICATION_CONTEXT(
'Core Data for Automotive Mechanical Design Process');
#354=PRODUCT_CONTEXT('part definition',#353,'mechanical');
#355=PRODUCT('Product','Product',$,(#354));
#356=PRODUCT('*S0','*S0',$,(#354));
#357=PRESENTATION_STYLE_ASSIGNMENT((#360));
#358=PRESENTATION_STYLE_ASSIGNMENT((#361));
#359=PRESENTATION_STYLE_ASSIGNMENT((#362));
#360=SURFACE_STYLE_USAGE(.BOTH.,#363);
#361=SURFACE_STYLE_USAGE(.BOTH.,#364);
#362=SURFACE_STYLE_USAGE(.BOTH.,#365);
#363=SURFACE_SIDE_STYLE('',(#366));
#364=SURFACE_SIDE_STYLE('',(#367));
#365=SURFACE_SIDE_STYLE('',(#368));
#366=SURFACE_STYLE_FILL_AREA(#369);
#367=SURFACE_STYLE_FILL_AREA(#370);
#368=SURFACE_STYLE_FILL_AREA(#371);
#369=FILL_AREA_STYLE('',(#372));
#370=FILL_AREA_STYLE('',(#373));
#371=FILL_AREA_STYLE('',(#374));
#372=FILL_AREA_STYLE_COLOUR('',#375);
#373=FILL_AREA_STYLE_COLOUR('',#376);
#374=FILL_AREA_STYLE_COLOUR('',#377);
#375=COLOUR_RGB('',1.,1.,1.);
#376=COLOUR_RGB('',1.,0.,1.);
#377=COLOUR_RGB('',0.870588235294118,0.870588235294118,0.870588235294118);
ENDSEC;
END-ISO-10303-21;
