ISO-10303-21;
HEADER;
/* Generated by software containing ST-Developer
 * from STEP Tools, Inc. (www.steptools.com) 
 */

FILE_DESCRIPTION(
/* description */ (''),
/* implementation_level */ '2;1');

FILE_NAME(
/* name */ '21803.150X_3D.stp',
/* time_stamp */ '2024-12-12T08:45:07+01:00',
/* author */ ('CAD'),
/* organization */ (''),
/* preprocessor_version */ 'ST-DEVELOPER v20',
/* originating_system */ 'AutoCAD Mechanical',
/* authorisation */ '');

FILE_SCHEMA (('AUTOMOTIVE_DESIGN { 1 0 10303 214 3 1 1 }'));
ENDSEC;

DATA;
#10=MECHANICAL_DESIGN_GEOMETRIC_PRESENTATION_REPRESENTATION('',(#18),#440);
#11=PRESENTATION_LAYER_ASSIGNMENT('3','KOMPRESSION',(#19));
#12=SHAPE_REPRESENTATION_RELATIONSHIP('SRR','None',#449,#13);
#13=ADVANCED_BREP_SHAPE_REPRESENTATION('',(#19),#438);
#14=ITEM_DEFINED_TRANSFORMATION($,$,#256,#289);
#15=(
REPRESENTATION_RELATIONSHIP($,$,#450,#449)
REPRESENTATION_RELATIONSHIP_WITH_TRANSFORMATION(#14)
SHAPE_REPRESENTATION_RELATIONSHIP()
);
#16=CONTEXT_DEPENDENT_SHAPE_REPRESENTATION(#15,#448);
#17=NEXT_ASSEMBLY_USAGE_OCCURRENCE('D10','D10','D10',#452,#453,'D10');
#18=STYLED_ITEM('',(#463),#19);
#19=MANIFOLD_SOLID_BREP('1526',#254);
#20=FACE_BOUND('',#63,.T.);
#21=FACE_BOUND('',#64,.T.);
#22=FACE_BOUND('',#65,.T.);
#23=FACE_BOUND('',#66,.T.);
#24=FACE_BOUND('',#67,.T.);
#25=FACE_BOUND('',#68,.T.);
#26=FACE_BOUND('',#69,.T.);
#27=FACE_BOUND('',#70,.T.);
#28=FACE_BOUND('',#71,.T.);
#29=FACE_BOUND('',#73,.T.);
#30=FACE_BOUND('',#74,.T.);
#31=FACE_BOUND('',#75,.T.);
#32=FACE_BOUND('',#76,.T.);
#33=FACE_BOUND('',#77,.T.);
#34=FACE_BOUND('',#78,.T.);
#35=FACE_BOUND('',#79,.T.);
#36=FACE_BOUND('',#80,.T.);
#37=FACE_BOUND('',#81,.T.);
#38=PLANE('',#287);
#39=PLANE('',#288);
#40=FACE_OUTER_BOUND('',#52,.T.);
#41=FACE_OUTER_BOUND('',#53,.T.);
#42=FACE_OUTER_BOUND('',#54,.T.);
#43=FACE_OUTER_BOUND('',#55,.T.);
#44=FACE_OUTER_BOUND('',#56,.T.);
#45=FACE_OUTER_BOUND('',#57,.T.);
#46=FACE_OUTER_BOUND('',#58,.T.);
#47=FACE_OUTER_BOUND('',#59,.T.);
#48=FACE_OUTER_BOUND('',#60,.T.);
#49=FACE_OUTER_BOUND('',#61,.T.);
#50=FACE_OUTER_BOUND('',#62,.T.);
#51=FACE_OUTER_BOUND('',#72,.T.);
#52=EDGE_LOOP('',(#172,#173,#174,#175));
#53=EDGE_LOOP('',(#176,#177,#178,#179));
#54=EDGE_LOOP('',(#180,#181,#182,#183));
#55=EDGE_LOOP('',(#184,#185,#186,#187));
#56=EDGE_LOOP('',(#188,#189,#190,#191));
#57=EDGE_LOOP('',(#192,#193,#194,#195));
#58=EDGE_LOOP('',(#196,#197,#198,#199));
#59=EDGE_LOOP('',(#200,#201,#202,#203));
#60=EDGE_LOOP('',(#204,#205,#206,#207));
#61=EDGE_LOOP('',(#208,#209,#210,#211));
#62=EDGE_LOOP('',(#212));
#63=EDGE_LOOP('',(#213));
#64=EDGE_LOOP('',(#214));
#65=EDGE_LOOP('',(#215));
#66=EDGE_LOOP('',(#216));
#67=EDGE_LOOP('',(#217));
#68=EDGE_LOOP('',(#218));
#69=EDGE_LOOP('',(#219));
#70=EDGE_LOOP('',(#220));
#71=EDGE_LOOP('',(#221));
#72=EDGE_LOOP('',(#222));
#73=EDGE_LOOP('',(#223));
#74=EDGE_LOOP('',(#224));
#75=EDGE_LOOP('',(#225));
#76=EDGE_LOOP('',(#226));
#77=EDGE_LOOP('',(#227));
#78=EDGE_LOOP('',(#228));
#79=EDGE_LOOP('',(#229));
#80=EDGE_LOOP('',(#230));
#81=EDGE_LOOP('',(#231));
#82=LINE('',#376,#92);
#83=LINE('',#382,#93);
#84=LINE('',#388,#94);
#85=LINE('',#394,#95);
#86=LINE('',#400,#96);
#87=LINE('',#406,#97);
#88=LINE('',#412,#98);
#89=LINE('',#418,#99);
#90=LINE('',#424,#100);
#91=LINE('',#430,#101);
#92=VECTOR('',#298,8.);
#93=VECTOR('',#305,8.);
#94=VECTOR('',#312,8.);
#95=VECTOR('',#319,8.);
#96=VECTOR('',#326,8.);
#97=VECTOR('',#333,110.);
#98=VECTOR('',#340,8.);
#99=VECTOR('',#347,8.);
#100=VECTOR('',#354,8.);
#101=VECTOR('',#361,180.);
#102=CIRCLE('',#258,8.);
#103=CIRCLE('',#259,8.);
#104=CIRCLE('',#261,8.);
#105=CIRCLE('',#262,8.);
#106=CIRCLE('',#264,8.);
#107=CIRCLE('',#265,8.);
#108=CIRCLE('',#267,8.);
#109=CIRCLE('',#268,8.);
#110=CIRCLE('',#270,8.);
#111=CIRCLE('',#271,8.);
#112=CIRCLE('',#273,110.);
#113=CIRCLE('',#274,110.);
#114=CIRCLE('',#276,8.);
#115=CIRCLE('',#277,8.);
#116=CIRCLE('',#279,8.);
#117=CIRCLE('',#280,8.);
#118=CIRCLE('',#282,8.);
#119=CIRCLE('',#283,8.);
#120=CIRCLE('',#285,180.);
#121=CIRCLE('',#286,180.);
#122=VERTEX_POINT('',#373);
#123=VERTEX_POINT('',#375);
#124=VERTEX_POINT('',#379);
#125=VERTEX_POINT('',#381);
#126=VERTEX_POINT('',#385);
#127=VERTEX_POINT('',#387);
#128=VERTEX_POINT('',#391);
#129=VERTEX_POINT('',#393);
#130=VERTEX_POINT('',#397);
#131=VERTEX_POINT('',#399);
#132=VERTEX_POINT('',#403);
#133=VERTEX_POINT('',#405);
#134=VERTEX_POINT('',#409);
#135=VERTEX_POINT('',#411);
#136=VERTEX_POINT('',#415);
#137=VERTEX_POINT('',#417);
#138=VERTEX_POINT('',#421);
#139=VERTEX_POINT('',#423);
#140=VERTEX_POINT('',#427);
#141=VERTEX_POINT('',#429);
#142=EDGE_CURVE('',#122,#122,#102,.T.);
#143=EDGE_CURVE('',#122,#123,#82,.T.);
#144=EDGE_CURVE('',#123,#123,#103,.T.);
#145=EDGE_CURVE('',#124,#124,#104,.T.);
#146=EDGE_CURVE('',#124,#125,#83,.T.);
#147=EDGE_CURVE('',#125,#125,#105,.T.);
#148=EDGE_CURVE('',#126,#126,#106,.T.);
#149=EDGE_CURVE('',#126,#127,#84,.T.);
#150=EDGE_CURVE('',#127,#127,#107,.T.);
#151=EDGE_CURVE('',#128,#128,#108,.T.);
#152=EDGE_CURVE('',#128,#129,#85,.T.);
#153=EDGE_CURVE('',#129,#129,#109,.T.);
#154=EDGE_CURVE('',#130,#130,#110,.T.);
#155=EDGE_CURVE('',#130,#131,#86,.T.);
#156=EDGE_CURVE('',#131,#131,#111,.T.);
#157=EDGE_CURVE('',#132,#132,#112,.T.);
#158=EDGE_CURVE('',#132,#133,#87,.T.);
#159=EDGE_CURVE('',#133,#133,#113,.T.);
#160=EDGE_CURVE('',#134,#134,#114,.T.);
#161=EDGE_CURVE('',#134,#135,#88,.T.);
#162=EDGE_CURVE('',#135,#135,#115,.T.);
#163=EDGE_CURVE('',#136,#136,#116,.T.);
#164=EDGE_CURVE('',#136,#137,#89,.T.);
#165=EDGE_CURVE('',#137,#137,#117,.T.);
#166=EDGE_CURVE('',#138,#138,#118,.T.);
#167=EDGE_CURVE('',#138,#139,#90,.T.);
#168=EDGE_CURVE('',#139,#139,#119,.T.);
#169=EDGE_CURVE('',#140,#140,#120,.T.);
#170=EDGE_CURVE('',#140,#141,#91,.T.);
#171=EDGE_CURVE('',#141,#141,#121,.T.);
#172=ORIENTED_EDGE('',*,*,#142,.F.);
#173=ORIENTED_EDGE('',*,*,#143,.T.);
#174=ORIENTED_EDGE('',*,*,#144,.T.);
#175=ORIENTED_EDGE('',*,*,#143,.F.);
#176=ORIENTED_EDGE('',*,*,#145,.F.);
#177=ORIENTED_EDGE('',*,*,#146,.T.);
#178=ORIENTED_EDGE('',*,*,#147,.T.);
#179=ORIENTED_EDGE('',*,*,#146,.F.);
#180=ORIENTED_EDGE('',*,*,#148,.F.);
#181=ORIENTED_EDGE('',*,*,#149,.T.);
#182=ORIENTED_EDGE('',*,*,#150,.T.);
#183=ORIENTED_EDGE('',*,*,#149,.F.);
#184=ORIENTED_EDGE('',*,*,#151,.F.);
#185=ORIENTED_EDGE('',*,*,#152,.T.);
#186=ORIENTED_EDGE('',*,*,#153,.T.);
#187=ORIENTED_EDGE('',*,*,#152,.F.);
#188=ORIENTED_EDGE('',*,*,#154,.F.);
#189=ORIENTED_EDGE('',*,*,#155,.T.);
#190=ORIENTED_EDGE('',*,*,#156,.T.);
#191=ORIENTED_EDGE('',*,*,#155,.F.);
#192=ORIENTED_EDGE('',*,*,#157,.F.);
#193=ORIENTED_EDGE('',*,*,#158,.T.);
#194=ORIENTED_EDGE('',*,*,#159,.T.);
#195=ORIENTED_EDGE('',*,*,#158,.F.);
#196=ORIENTED_EDGE('',*,*,#160,.F.);
#197=ORIENTED_EDGE('',*,*,#161,.T.);
#198=ORIENTED_EDGE('',*,*,#162,.T.);
#199=ORIENTED_EDGE('',*,*,#161,.F.);
#200=ORIENTED_EDGE('',*,*,#163,.F.);
#201=ORIENTED_EDGE('',*,*,#164,.T.);
#202=ORIENTED_EDGE('',*,*,#165,.T.);
#203=ORIENTED_EDGE('',*,*,#164,.F.);
#204=ORIENTED_EDGE('',*,*,#166,.F.);
#205=ORIENTED_EDGE('',*,*,#167,.T.);
#206=ORIENTED_EDGE('',*,*,#168,.T.);
#207=ORIENTED_EDGE('',*,*,#167,.F.);
#208=ORIENTED_EDGE('',*,*,#169,.F.);
#209=ORIENTED_EDGE('',*,*,#170,.T.);
#210=ORIENTED_EDGE('',*,*,#171,.T.);
#211=ORIENTED_EDGE('',*,*,#170,.F.);
#212=ORIENTED_EDGE('',*,*,#169,.T.);
#213=ORIENTED_EDGE('',*,*,#166,.T.);
#214=ORIENTED_EDGE('',*,*,#163,.T.);
#215=ORIENTED_EDGE('',*,*,#160,.T.);
#216=ORIENTED_EDGE('',*,*,#157,.T.);
#217=ORIENTED_EDGE('',*,*,#154,.T.);
#218=ORIENTED_EDGE('',*,*,#151,.T.);
#219=ORIENTED_EDGE('',*,*,#148,.T.);
#220=ORIENTED_EDGE('',*,*,#145,.T.);
#221=ORIENTED_EDGE('',*,*,#142,.T.);
#222=ORIENTED_EDGE('',*,*,#171,.F.);
#223=ORIENTED_EDGE('',*,*,#168,.F.);
#224=ORIENTED_EDGE('',*,*,#165,.F.);
#225=ORIENTED_EDGE('',*,*,#162,.F.);
#226=ORIENTED_EDGE('',*,*,#159,.F.);
#227=ORIENTED_EDGE('',*,*,#156,.F.);
#228=ORIENTED_EDGE('',*,*,#153,.F.);
#229=ORIENTED_EDGE('',*,*,#150,.F.);
#230=ORIENTED_EDGE('',*,*,#147,.F.);
#231=ORIENTED_EDGE('',*,*,#144,.F.);
#232=CYLINDRICAL_SURFACE('',#257,8.);
#233=CYLINDRICAL_SURFACE('',#260,8.);
#234=CYLINDRICAL_SURFACE('',#263,8.);
#235=CYLINDRICAL_SURFACE('',#266,8.);
#236=CYLINDRICAL_SURFACE('',#269,8.);
#237=CYLINDRICAL_SURFACE('',#272,110.);
#238=CYLINDRICAL_SURFACE('',#275,8.);
#239=CYLINDRICAL_SURFACE('',#278,8.);
#240=CYLINDRICAL_SURFACE('',#281,8.);
#241=CYLINDRICAL_SURFACE('',#284,180.);
#242=ADVANCED_FACE('',(#40),#232,.F.);
#243=ADVANCED_FACE('',(#41),#233,.F.);
#244=ADVANCED_FACE('',(#42),#234,.F.);
#245=ADVANCED_FACE('',(#43),#235,.F.);
#246=ADVANCED_FACE('',(#44),#236,.F.);
#247=ADVANCED_FACE('',(#45),#237,.F.);
#248=ADVANCED_FACE('',(#46),#238,.F.);
#249=ADVANCED_FACE('',(#47),#239,.F.);
#250=ADVANCED_FACE('',(#48),#240,.F.);
#251=ADVANCED_FACE('',(#49),#241,.T.);
#252=ADVANCED_FACE('',(#50,#20,#21,#22,#23,#24,#25,#26,#27,#28),#38,.T.);
#253=ADVANCED_FACE('',(#51,#29,#30,#31,#32,#33,#34,#35,#36,#37),#39,.F.);
#254=CLOSED_SHELL('',(#242,#243,#244,#245,#246,#247,#248,#249,#250,#251,
#252,#253));
#255=AXIS2_PLACEMENT_3D('',#370,#290,#291);
#256=AXIS2_PLACEMENT_3D('',#371,#292,#293);
#257=AXIS2_PLACEMENT_3D('',#372,#294,#295);
#258=AXIS2_PLACEMENT_3D('',#374,#296,#297);
#259=AXIS2_PLACEMENT_3D('',#377,#299,#300);
#260=AXIS2_PLACEMENT_3D('',#378,#301,#302);
#261=AXIS2_PLACEMENT_3D('',#380,#303,#304);
#262=AXIS2_PLACEMENT_3D('',#383,#306,#307);
#263=AXIS2_PLACEMENT_3D('',#384,#308,#309);
#264=AXIS2_PLACEMENT_3D('',#386,#310,#311);
#265=AXIS2_PLACEMENT_3D('',#389,#313,#314);
#266=AXIS2_PLACEMENT_3D('',#390,#315,#316);
#267=AXIS2_PLACEMENT_3D('',#392,#317,#318);
#268=AXIS2_PLACEMENT_3D('',#395,#320,#321);
#269=AXIS2_PLACEMENT_3D('',#396,#322,#323);
#270=AXIS2_PLACEMENT_3D('',#398,#324,#325);
#271=AXIS2_PLACEMENT_3D('',#401,#327,#328);
#272=AXIS2_PLACEMENT_3D('',#402,#329,#330);
#273=AXIS2_PLACEMENT_3D('',#404,#331,#332);
#274=AXIS2_PLACEMENT_3D('',#407,#334,#335);
#275=AXIS2_PLACEMENT_3D('',#408,#336,#337);
#276=AXIS2_PLACEMENT_3D('',#410,#338,#339);
#277=AXIS2_PLACEMENT_3D('',#413,#341,#342);
#278=AXIS2_PLACEMENT_3D('',#414,#343,#344);
#279=AXIS2_PLACEMENT_3D('',#416,#345,#346);
#280=AXIS2_PLACEMENT_3D('',#419,#348,#349);
#281=AXIS2_PLACEMENT_3D('',#420,#350,#351);
#282=AXIS2_PLACEMENT_3D('',#422,#352,#353);
#283=AXIS2_PLACEMENT_3D('',#425,#355,#356);
#284=AXIS2_PLACEMENT_3D('',#426,#357,#358);
#285=AXIS2_PLACEMENT_3D('',#428,#359,#360);
#286=AXIS2_PLACEMENT_3D('',#431,#362,#363);
#287=AXIS2_PLACEMENT_3D('',#432,#364,#365);
#288=AXIS2_PLACEMENT_3D('',#433,#366,#367);
#289=AXIS2_PLACEMENT_3D('',#434,#368,#369);
#290=DIRECTION('axis',(0.,0.,1.));
#291=DIRECTION('refdir',(1.,0.,0.));
#292=DIRECTION('axis',(0.,0.,1.));
#293=DIRECTION('refdir',(1.,0.,0.));
#294=DIRECTION('center_axis',(0.,0.,1.));
#295=DIRECTION('ref_axis',(1.,0.,0.));
#296=DIRECTION('center_axis',(0.,0.,-1.));
#297=DIRECTION('ref_axis',(1.,0.,0.));
#298=DIRECTION('',(0.,0.,-1.));
#299=DIRECTION('center_axis',(0.,0.,-1.));
#300=DIRECTION('ref_axis',(1.,0.,0.));
#301=DIRECTION('center_axis',(0.,0.,1.));
#302=DIRECTION('ref_axis',(-1.,0.,0.));
#303=DIRECTION('center_axis',(0.,0.,-1.));
#304=DIRECTION('ref_axis',(-1.,0.,0.));
#305=DIRECTION('',(0.,0.,-1.));
#306=DIRECTION('center_axis',(0.,0.,-1.));
#307=DIRECTION('ref_axis',(-1.,0.,0.));
#308=DIRECTION('center_axis',(0.,0.,1.));
#309=DIRECTION('ref_axis',(-1.,0.,0.));
#310=DIRECTION('center_axis',(0.,0.,-1.));
#311=DIRECTION('ref_axis',(-1.,0.,0.));
#312=DIRECTION('',(0.,0.,-1.));
#313=DIRECTION('center_axis',(0.,0.,-1.));
#314=DIRECTION('ref_axis',(-1.,0.,0.));
#315=DIRECTION('center_axis',(0.,0.,1.));
#316=DIRECTION('ref_axis',(-1.,0.,0.));
#317=DIRECTION('center_axis',(0.,0.,-1.));
#318=DIRECTION('ref_axis',(-1.,0.,0.));
#319=DIRECTION('',(0.,0.,-1.));
#320=DIRECTION('center_axis',(0.,0.,-1.));
#321=DIRECTION('ref_axis',(-1.,0.,0.));
#322=DIRECTION('center_axis',(0.,0.,1.));
#323=DIRECTION('ref_axis',(1.,0.,0.));
#324=DIRECTION('center_axis',(0.,0.,-1.));
#325=DIRECTION('ref_axis',(1.,0.,0.));
#326=DIRECTION('',(0.,0.,-1.));
#327=DIRECTION('center_axis',(0.,0.,-1.));
#328=DIRECTION('ref_axis',(1.,0.,0.));
#329=DIRECTION('center_axis',(0.,0.,1.));
#330=DIRECTION('ref_axis',(1.,0.,0.));
#331=DIRECTION('center_axis',(0.,0.,-1.));
#332=DIRECTION('ref_axis',(1.,0.,0.));
#333=DIRECTION('',(0.,0.,-1.));
#334=DIRECTION('center_axis',(0.,0.,-1.));
#335=DIRECTION('ref_axis',(1.,0.,0.));
#336=DIRECTION('center_axis',(0.,0.,1.));
#337=DIRECTION('ref_axis',(1.,0.,0.));
#338=DIRECTION('center_axis',(0.,0.,-1.));
#339=DIRECTION('ref_axis',(1.,0.,0.));
#340=DIRECTION('',(0.,0.,-1.));
#341=DIRECTION('center_axis',(0.,0.,-1.));
#342=DIRECTION('ref_axis',(1.,0.,0.));
#343=DIRECTION('center_axis',(0.,0.,1.));
#344=DIRECTION('ref_axis',(1.,0.,0.));
#345=DIRECTION('center_axis',(0.,0.,-1.));
#346=DIRECTION('ref_axis',(1.,0.,0.));
#347=DIRECTION('',(0.,0.,-1.));
#348=DIRECTION('center_axis',(0.,0.,-1.));
#349=DIRECTION('ref_axis',(1.,0.,0.));
#350=DIRECTION('center_axis',(0.,0.,1.));
#351=DIRECTION('ref_axis',(1.,0.,0.));
#352=DIRECTION('center_axis',(0.,0.,-1.));
#353=DIRECTION('ref_axis',(1.,0.,0.));
#354=DIRECTION('',(0.,0.,-1.));
#355=DIRECTION('center_axis',(0.,0.,-1.));
#356=DIRECTION('ref_axis',(1.,0.,0.));
#357=DIRECTION('center_axis',(0.,0.,1.));
#358=DIRECTION('ref_axis',(-1.,0.,0.));
#359=DIRECTION('center_axis',(0.,0.,1.));
#360=DIRECTION('ref_axis',(1.,0.,0.));
#361=DIRECTION('',(0.,0.,-1.));
#362=DIRECTION('center_axis',(0.,0.,1.));
#363=DIRECTION('ref_axis',(-1.,0.,0.));
#364=DIRECTION('center_axis',(0.,0.,1.));
#365=DIRECTION('ref_axis',(1.,0.,0.));
#366=DIRECTION('center_axis',(0.,0.,1.));
#367=DIRECTION('ref_axis',(1.,0.,0.));
#368=DIRECTION('',(0.,0.,1.));
#369=DIRECTION('',(1.,0.,0.));
#370=CARTESIAN_POINT('',(0.,0.,0.));
#371=CARTESIAN_POINT('',(0.,0.,0.));
#372=CARTESIAN_POINT('Origin',(90.6191563365769,292.188984884067,0.));
#373=CARTESIAN_POINT('',(82.6191563365769,292.188984884067,2.));
#374=CARTESIAN_POINT('Origin',(90.6191563365769,292.188984884067,2.));
#375=CARTESIAN_POINT('',(82.6191563365769,292.188984884067,0.));
#376=CARTESIAN_POINT('',(82.6191563365769,292.188984884067,0.));
#377=CARTESIAN_POINT('Origin',(90.6191563365769,292.188984884067,0.));
#378=CARTESIAN_POINT('Origin',(132.209993408087,392.598147812556,0.));
#379=CARTESIAN_POINT('',(140.209993408087,392.598147812556,2.));
#380=CARTESIAN_POINT('Origin',(132.209993408087,392.598147812556,2.));
#381=CARTESIAN_POINT('',(140.209993408087,392.598147812556,0.));
#382=CARTESIAN_POINT('',(140.209993408087,392.598147812556,0.));
#383=CARTESIAN_POINT('Origin',(132.209993408087,392.598147812556,0.));
#384=CARTESIAN_POINT('Origin',(232.619156336577,434.188984884067,0.));
#385=CARTESIAN_POINT('',(240.619156336577,434.188984884067,2.));
#386=CARTESIAN_POINT('Origin',(232.619156336577,434.188984884067,2.));
#387=CARTESIAN_POINT('',(240.619156336577,434.188984884067,0.));
#388=CARTESIAN_POINT('',(240.619156336577,434.188984884067,0.));
#389=CARTESIAN_POINT('Origin',(232.619156336577,434.188984884067,0.));
#390=CARTESIAN_POINT('Origin',(333.028319265067,392.598147812556,0.));
#391=CARTESIAN_POINT('',(341.028319265067,392.598147812556,2.));
#392=CARTESIAN_POINT('Origin',(333.028319265067,392.598147812556,2.));
#393=CARTESIAN_POINT('',(341.028319265067,392.598147812556,0.));
#394=CARTESIAN_POINT('',(341.028319265067,392.598147812556,0.));
#395=CARTESIAN_POINT('Origin',(333.028319265067,392.598147812556,0.));
#396=CARTESIAN_POINT('Origin',(374.619156336577,292.188984884067,0.));
#397=CARTESIAN_POINT('',(366.619156336577,292.188984884067,2.));
#398=CARTESIAN_POINT('Origin',(374.619156336577,292.188984884067,2.));
#399=CARTESIAN_POINT('',(366.619156336577,292.188984884067,0.));
#400=CARTESIAN_POINT('',(366.619156336577,292.188984884067,0.));
#401=CARTESIAN_POINT('Origin',(374.619156336577,292.188984884067,0.));
#402=CARTESIAN_POINT('Origin',(232.619156336577,292.188984884067,0.));
#403=CARTESIAN_POINT('',(122.619156336577,292.188984884067,2.));
#404=CARTESIAN_POINT('Origin',(232.619156336577,292.188984884067,2.));
#405=CARTESIAN_POINT('',(122.619156336577,292.188984884067,0.));
#406=CARTESIAN_POINT('',(122.619156336577,292.188984884067,0.));
#407=CARTESIAN_POINT('Origin',(232.619156336577,292.188984884067,0.));
#408=CARTESIAN_POINT('Origin',(333.028319265067,191.779821955577,0.));
#409=CARTESIAN_POINT('',(325.028319265067,191.779821955577,2.));
#410=CARTESIAN_POINT('Origin',(333.028319265067,191.779821955577,2.));
#411=CARTESIAN_POINT('',(325.028319265067,191.779821955577,0.));
#412=CARTESIAN_POINT('',(325.028319265067,191.779821955577,0.));
#413=CARTESIAN_POINT('Origin',(333.028319265067,191.779821955577,0.));
#414=CARTESIAN_POINT('Origin',(232.619156336577,150.188984884067,0.));
#415=CARTESIAN_POINT('',(224.619156336577,150.188984884067,2.));
#416=CARTESIAN_POINT('Origin',(232.619156336577,150.188984884067,2.));
#417=CARTESIAN_POINT('',(224.619156336577,150.188984884067,0.));
#418=CARTESIAN_POINT('',(224.619156336577,150.188984884067,0.));
#419=CARTESIAN_POINT('Origin',(232.619156336577,150.188984884067,0.));
#420=CARTESIAN_POINT('Origin',(132.209993408087,191.779821955577,0.));
#421=CARTESIAN_POINT('',(124.209993408087,191.779821955577,2.));
#422=CARTESIAN_POINT('Origin',(132.209993408087,191.779821955577,2.));
#423=CARTESIAN_POINT('',(124.209993408087,191.779821955577,0.));
#424=CARTESIAN_POINT('',(124.209993408087,191.779821955577,0.));
#425=CARTESIAN_POINT('Origin',(132.209993408087,191.779821955577,0.));
#426=CARTESIAN_POINT('Origin',(232.619156336577,292.188984884067,0.));
#427=CARTESIAN_POINT('',(412.619156336577,292.188984884067,2.));
#428=CARTESIAN_POINT('Origin',(232.619156336577,292.188984884067,2.));
#429=CARTESIAN_POINT('',(412.619156336577,292.188984884067,0.));
#430=CARTESIAN_POINT('',(412.619156336577,292.188984884067,0.));
#431=CARTESIAN_POINT('Origin',(232.619156336577,292.188984884067,0.));
#432=CARTESIAN_POINT('Origin',(232.619156336577,292.188984884067,2.));
#433=CARTESIAN_POINT('Origin',(232.619156336577,292.188984884067,0.));
#434=CARTESIAN_POINT('',(0.,0.,0.));
#435=UNCERTAINTY_MEASURE_WITH_UNIT(LENGTH_MEASURE(0.001),#441,
'DISTANCE_ACCURACY_VALUE',
'Maximum model space distance between geometric entities at asserted c
onnectivities');
#436=UNCERTAINTY_MEASURE_WITH_UNIT(LENGTH_MEASURE(0.001),#441,
'DISTANCE_ACCURACY_VALUE',
'Maximum model space distance between geometric entities at asserted c
onnectivities');
#437=UNCERTAINTY_MEASURE_WITH_UNIT(LENGTH_MEASURE(0.001),#441,
'DISTANCE_ACCURACY_VALUE',
'Maximum model space distance between geometric entities at asserted c
onnectivities');
#438=(
GEOMETRIC_REPRESENTATION_CONTEXT(3)
GLOBAL_UNCERTAINTY_ASSIGNED_CONTEXT((#435))
GLOBAL_UNIT_ASSIGNED_CONTEXT((#441,#442,#443))
REPRESENTATION_CONTEXT('','3D')
);
#439=(
GEOMETRIC_REPRESENTATION_CONTEXT(3)
GLOBAL_UNCERTAINTY_ASSIGNED_CONTEXT((#436))
GLOBAL_UNIT_ASSIGNED_CONTEXT((#441,#442,#443))
REPRESENTATION_CONTEXT('','3D')
);
#440=(
GEOMETRIC_REPRESENTATION_CONTEXT(3)
GLOBAL_UNCERTAINTY_ASSIGNED_CONTEXT((#437))
GLOBAL_UNIT_ASSIGNED_CONTEXT((#441,#442,#443))
REPRESENTATION_CONTEXT('','3D')
);
#441=(
LENGTH_UNIT()
NAMED_UNIT(*)
SI_UNIT(.CENTI.,.METRE.)
);
#442=(
NAMED_UNIT(*)
PLANE_ANGLE_UNIT()
SI_UNIT($,.RADIAN.)
);
#443=(
NAMED_UNIT(*)
SI_UNIT($,.STERADIAN.)
SOLID_ANGLE_UNIT()
);
#444=SHAPE_DEFINITION_REPRESENTATION(#446,#449);
#445=SHAPE_DEFINITION_REPRESENTATION(#447,#450);
#446=PRODUCT_DEFINITION_SHAPE('',$,#452);
#447=PRODUCT_DEFINITION_SHAPE('',$,#453);
#448=PRODUCT_DEFINITION_SHAPE($,$,#17);
#449=SHAPE_REPRESENTATION('',(#255,#289),#438);
#450=SHAPE_REPRESENTATION('',(#256),#439);
#451=PRODUCT_DEFINITION_CONTEXT('part definition',#459,'design');
#452=PRODUCT_DEFINITION('Product','Product',#454,#451);
#453=PRODUCT_DEFINITION('*S0','*S0',#455,#451);
#454=PRODUCT_DEFINITION_FORMATION('',$,#461);
#455=PRODUCT_DEFINITION_FORMATION('',$,#462);
#456=PRODUCT_RELATED_PRODUCT_CATEGORY('Product','Product',(#461));
#457=PRODUCT_RELATED_PRODUCT_CATEGORY('*S0','*S0',(#462));
#458=APPLICATION_PROTOCOL_DEFINITION('international standard',
'automotive_design',2009,#459);
#459=APPLICATION_CONTEXT(
'Core Data for Automotive Mechanical Design Process');
#460=PRODUCT_CONTEXT('part definition',#459,'mechanical');
#461=PRODUCT('Product','Product',$,(#460));
#462=PRODUCT('*S0','*S0',$,(#460));
#463=PRESENTATION_STYLE_ASSIGNMENT((#464));
#464=SURFACE_STYLE_USAGE(.BOTH.,#465);
#465=SURFACE_SIDE_STYLE('',(#466));
#466=SURFACE_STYLE_FILL_AREA(#467);
#467=FILL_AREA_STYLE('',(#468));
#468=FILL_AREA_STYLE_COLOUR('',#469);
#469=COLOUR_RGB('',0.329411764705882,0.329411764705882,0.329411764705882);
ENDSEC;
END-ISO-10303-21;
