ISO-10303-21;
HEADER;
/* Generated by software containing ST-Developer
 * from STEP Tools, Inc. (www.steptools.com) 
 */

FILE_DESCRIPTION(
/* description */ (''),
/* implementation_level */ '2;1');

FILE_NAME(
/* name */ '19842.100X_3D.stp',
/* time_stamp */ '2025-02-21T13:29:26+01:00',
/* author */ ('c.rudolph'),
/* organization */ (''),
/* preprocessor_version */ 'ST-DEVELOPER v20',
/* originating_system */ 'AutoCAD Mechanical',
/* authorisation */ '');

FILE_SCHEMA (('AUTOMOTIVE_DESIGN { 1 0 10303 214 3 1 1 }'));
ENDSEC;

DATA;
#10=MECHANICAL_DESIGN_GEOMETRIC_PRESENTATION_REPRESENTATION('',(#148,#149),
#301);
#11=PRESENTATION_LAYER_ASSIGNMENT('2','DEFPOINTS',(#150));
#12=PRESENTATION_LAYER_ASSIGNMENT('3','Styropor',(#22));
#13=ADVANCED_BREP_SHAPE_REPRESENTATION('',(#22),#299);
#14=SHAPE_REPRESENTATION_RELATIONSHIP('SRR','None',#310,#16);
#15=SHAPE_REPRESENTATION_RELATIONSHIP('SRR','None',#310,#13);
#16=GEOMETRICALLY_BOUNDED_SURFACE_SHAPE_REPRESENTATION('',(#17),#299);
#17=GEOMETRIC_SET('GEOSET',(#150));
#18=ITEM_DEFINED_TRANSFORMATION($,$,#168,#191);
#19=(
REPRESENTATION_RELATIONSHIP($,$,#311,#310)
REPRESENTATION_RELATIONSHIP_WITH_TRANSFORMATION(#18)
SHAPE_REPRESENTATION_RELATIONSHIP()
);
#20=CONTEXT_DEPENDENT_SHAPE_REPRESENTATION(#19,#309);
#21=NEXT_ASSEMBLY_USAGE_OCCURRENCE('712A','712A','712A',#313,#314,
'712A');
#22=MANIFOLD_SOLID_BREP('25706',#147);
#23=CYLINDRICAL_SURFACE('',#178,50.);
#24=CYLINDRICAL_SURFACE('',#182,62.5);
#25=CYLINDRICAL_SURFACE('',#186,73.4999999999999);
#26=FACE_BOUND('',#44,.T.);
#27=FACE_BOUND('',#52,.T.);
#28=PLANE('',#176);
#29=PLANE('',#190);
#30=TOROIDAL_SURFACE('',#173,77.2680952475024,3.00000000000002);
#31=FACE_OUTER_BOUND('',#41,.T.);
#32=FACE_OUTER_BOUND('',#42,.T.);
#33=FACE_OUTER_BOUND('',#43,.T.);
#34=FACE_OUTER_BOUND('',#45,.T.);
#35=FACE_OUTER_BOUND('',#46,.T.);
#36=FACE_OUTER_BOUND('',#47,.T.);
#37=FACE_OUTER_BOUND('',#48,.T.);
#38=FACE_OUTER_BOUND('',#49,.T.);
#39=FACE_OUTER_BOUND('',#50,.T.);
#40=FACE_OUTER_BOUND('',#51,.T.);
#41=EDGE_LOOP('',(#95,#96,#97,#98,#99));
#42=EDGE_LOOP('',(#100,#101,#102,#103,#104));
#43=EDGE_LOOP('',(#105));
#44=EDGE_LOOP('',(#106));
#45=EDGE_LOOP('',(#107,#108,#109,#110));
#46=EDGE_LOOP('',(#111,#112,#113,#114));
#47=EDGE_LOOP('',(#115,#116,#117,#118));
#48=EDGE_LOOP('',(#119,#120,#121,#122));
#49=EDGE_LOOP('',(#123,#124,#125,#126));
#50=EDGE_LOOP('',(#127,#128,#129,#130));
#51=EDGE_LOOP('',(#131));
#52=EDGE_LOOP('',(#132));
#53=CIRCLE('',#170,80.2549979256802);
#54=CIRCLE('',#171,80.2549979256802);
#55=CIRCLE('',#172,95.0000000000001);
#56=CIRCLE('',#174,77.2680952475023);
#57=CIRCLE('',#175,3.00000000000002);
#58=CIRCLE('',#177,50.);
#59=CIRCLE('',#179,50.);
#60=CIRCLE('',#181,62.5000000000001);
#61=CIRCLE('',#183,62.5);
#62=CIRCLE('',#185,73.4999999999998);
#63=CIRCLE('',#187,73.5);
#64=CIRCLE('',#189,80.);
#65=VERTEX_POINT('',#256);
#66=VERTEX_POINT('',#257);
#67=VERTEX_POINT('',#260);
#68=VERTEX_POINT('',#264);
#69=VERTEX_POINT('',#268);
#70=VERTEX_POINT('',#271);
#71=VERTEX_POINT('',#275);
#72=VERTEX_POINT('',#279);
#73=VERTEX_POINT('',#283);
#74=VERTEX_POINT('',#287);
#75=VERTEX_POINT('',#291);
#76=EDGE_CURVE('',#65,#66,#53,.T.);
#77=EDGE_CURVE('',#66,#65,#54,.T.);
#78=EDGE_CURVE('',#66,#67,#152,.T.);
#79=EDGE_CURVE('',#67,#67,#55,.T.);
#80=EDGE_CURVE('',#68,#68,#56,.T.);
#81=EDGE_CURVE('',#68,#65,#57,.T.);
#82=EDGE_CURVE('',#69,#69,#58,.T.);
#83=EDGE_CURVE('',#69,#70,#153,.T.);
#84=EDGE_CURVE('',#70,#70,#59,.T.);
#85=EDGE_CURVE('',#70,#71,#154,.T.);
#86=EDGE_CURVE('',#71,#71,#60,.T.);
#87=EDGE_CURVE('',#71,#72,#155,.T.);
#88=EDGE_CURVE('',#72,#72,#61,.T.);
#89=EDGE_CURVE('',#72,#73,#156,.T.);
#90=EDGE_CURVE('',#73,#73,#62,.T.);
#91=EDGE_CURVE('',#73,#74,#157,.T.);
#92=EDGE_CURVE('',#74,#74,#63,.T.);
#93=EDGE_CURVE('',#74,#75,#158,.T.);
#94=EDGE_CURVE('',#75,#75,#64,.T.);
#95=ORIENTED_EDGE('',*,*,#76,.F.);
#96=ORIENTED_EDGE('',*,*,#77,.F.);
#97=ORIENTED_EDGE('',*,*,#78,.T.);
#98=ORIENTED_EDGE('',*,*,#79,.T.);
#99=ORIENTED_EDGE('',*,*,#78,.F.);
#100=ORIENTED_EDGE('',*,*,#80,.F.);
#101=ORIENTED_EDGE('',*,*,#81,.T.);
#102=ORIENTED_EDGE('',*,*,#76,.T.);
#103=ORIENTED_EDGE('',*,*,#77,.T.);
#104=ORIENTED_EDGE('',*,*,#81,.F.);
#105=ORIENTED_EDGE('',*,*,#80,.T.);
#106=ORIENTED_EDGE('',*,*,#82,.F.);
#107=ORIENTED_EDGE('',*,*,#82,.T.);
#108=ORIENTED_EDGE('',*,*,#83,.T.);
#109=ORIENTED_EDGE('',*,*,#84,.F.);
#110=ORIENTED_EDGE('',*,*,#83,.F.);
#111=ORIENTED_EDGE('',*,*,#84,.T.);
#112=ORIENTED_EDGE('',*,*,#85,.T.);
#113=ORIENTED_EDGE('',*,*,#86,.F.);
#114=ORIENTED_EDGE('',*,*,#85,.F.);
#115=ORIENTED_EDGE('',*,*,#86,.T.);
#116=ORIENTED_EDGE('',*,*,#87,.T.);
#117=ORIENTED_EDGE('',*,*,#88,.F.);
#118=ORIENTED_EDGE('',*,*,#87,.F.);
#119=ORIENTED_EDGE('',*,*,#88,.T.);
#120=ORIENTED_EDGE('',*,*,#89,.T.);
#121=ORIENTED_EDGE('',*,*,#90,.F.);
#122=ORIENTED_EDGE('',*,*,#89,.F.);
#123=ORIENTED_EDGE('',*,*,#90,.T.);
#124=ORIENTED_EDGE('',*,*,#91,.T.);
#125=ORIENTED_EDGE('',*,*,#92,.F.);
#126=ORIENTED_EDGE('',*,*,#91,.F.);
#127=ORIENTED_EDGE('',*,*,#92,.T.);
#128=ORIENTED_EDGE('',*,*,#93,.T.);
#129=ORIENTED_EDGE('',*,*,#94,.F.);
#130=ORIENTED_EDGE('',*,*,#93,.F.);
#131=ORIENTED_EDGE('',*,*,#79,.F.);
#132=ORIENTED_EDGE('',*,*,#94,.T.);
#133=CONICAL_SURFACE('',#169,87.6274989628401,0.0934767811585895);
#134=CONICAL_SURFACE('',#180,56.25,0.6947382761967);
#135=CONICAL_SURFACE('',#184,67.9999999999999,0.50284321092785);
#136=CONICAL_SURFACE('',#188,76.75,0.91510070055336);
#137=ADVANCED_FACE('',(#31),#133,.T.);
#138=ADVANCED_FACE('',(#32),#30,.T.);
#139=ADVANCED_FACE('',(#33,#26),#28,.T.);
#140=ADVANCED_FACE('',(#34),#23,.F.);
#141=ADVANCED_FACE('',(#35),#134,.F.);
#142=ADVANCED_FACE('',(#36),#24,.F.);
#143=ADVANCED_FACE('',(#37),#135,.F.);
#144=ADVANCED_FACE('',(#38),#25,.F.);
#145=ADVANCED_FACE('',(#39),#136,.F.);
#146=ADVANCED_FACE('',(#40,#27),#29,.T.);
#147=CLOSED_SHELL('',(#137,#138,#139,#140,#141,#142,#143,#144,#145,#146));
#148=STYLED_ITEM('',(#325),#150);
#149=STYLED_ITEM('',(#326),#22);
#150=TRIMMED_CURVE('214A4',#151,(#253,PARAMETER_VALUE(0.)),(#254,
PARAMETER_VALUE(1.)),.T.,.PARAMETER.);
#151=LINE('',#252,#159);
#152=LINE('',#261,#160);
#153=LINE('',#272,#161);
#154=LINE('',#276,#162);
#155=LINE('',#280,#163);
#156=LINE('',#284,#164);
#157=LINE('',#288,#165);
#158=LINE('',#292,#166);
#159=VECTOR('',#196,160.);
#160=VECTOR('',#203,87.6274989628402);
#161=VECTOR('',#218,50.);
#162=VECTOR('',#223,56.25);
#163=VECTOR('',#228,62.5);
#164=VECTOR('',#233,67.9999999999999);
#165=VECTOR('',#238,73.4999999999999);
#166=VECTOR('',#243,76.75);
#167=AXIS2_PLACEMENT_3D('',#250,#192,#193);
#168=AXIS2_PLACEMENT_3D('',#251,#194,#195);
#169=AXIS2_PLACEMENT_3D('',#255,#197,#198);
#170=AXIS2_PLACEMENT_3D('',#258,#199,#200);
#171=AXIS2_PLACEMENT_3D('',#259,#201,#202);
#172=AXIS2_PLACEMENT_3D('',#262,#204,#205);
#173=AXIS2_PLACEMENT_3D('',#263,#206,#207);
#174=AXIS2_PLACEMENT_3D('',#265,#208,#209);
#175=AXIS2_PLACEMENT_3D('',#266,#210,#211);
#176=AXIS2_PLACEMENT_3D('',#267,#212,#213);
#177=AXIS2_PLACEMENT_3D('',#269,#214,#215);
#178=AXIS2_PLACEMENT_3D('',#270,#216,#217);
#179=AXIS2_PLACEMENT_3D('',#273,#219,#220);
#180=AXIS2_PLACEMENT_3D('',#274,#221,#222);
#181=AXIS2_PLACEMENT_3D('',#277,#224,#225);
#182=AXIS2_PLACEMENT_3D('',#278,#226,#227);
#183=AXIS2_PLACEMENT_3D('',#281,#229,#230);
#184=AXIS2_PLACEMENT_3D('',#282,#231,#232);
#185=AXIS2_PLACEMENT_3D('',#285,#234,#235);
#186=AXIS2_PLACEMENT_3D('',#286,#236,#237);
#187=AXIS2_PLACEMENT_3D('',#289,#239,#240);
#188=AXIS2_PLACEMENT_3D('',#290,#241,#242);
#189=AXIS2_PLACEMENT_3D('',#293,#244,#245);
#190=AXIS2_PLACEMENT_3D('',#294,#246,#247);
#191=AXIS2_PLACEMENT_3D('',#295,#248,#249);
#192=DIRECTION('axis',(0.,0.,1.));
#193=DIRECTION('refdir',(1.,0.,0.));
#194=DIRECTION('axis',(0.,0.,1.));
#195=DIRECTION('refdir',(1.,0.,0.));
#196=DIRECTION('',(0.,0.,1.));
#197=DIRECTION('center_axis',(0.,6.12323399573677E-17,1.));
#198=DIRECTION('ref_axis',(-1.,0.,0.));
#199=DIRECTION('center_axis',(0.,-6.12323399573677E-17,-1.));
#200=DIRECTION('ref_axis',(-1.,0.,0.));
#201=DIRECTION('center_axis',(0.,-6.12323399573677E-17,-1.));
#202=DIRECTION('ref_axis',(-1.,0.,0.));
#203=DIRECTION('',(0.0933407086930582,4.9534073390143E-17,0.995634226059288));
#204=DIRECTION('center_axis',(0.,-6.12323399573677E-17,-1.));
#205=DIRECTION('ref_axis',(-1.,0.,0.));
#206=DIRECTION('center_axis',(0.,-6.12323399573677E-17,-1.));
#207=DIRECTION('ref_axis',(0.,1.,-6.08583185297733E-17));
#208=DIRECTION('center_axis',(0.,-6.12323399573677E-17,-1.));
#209=DIRECTION('ref_axis',(-1.,0.,0.));
#210=DIRECTION('center_axis',(-1.,0.,0.));
#211=DIRECTION('ref_axis',(0.,-1.,6.12323399573677E-17));
#212=DIRECTION('center_axis',(0.,-6.12323399573677E-17,-1.));
#213=DIRECTION('ref_axis',(0.,1.,-6.12323399573677E-17));
#214=DIRECTION('center_axis',(0.,-6.12323399573677E-17,-1.));
#215=DIRECTION('ref_axis',(-1.,0.,0.));
#216=DIRECTION('center_axis',(0.,-6.12323399573677E-17,-1.));
#217=DIRECTION('ref_axis',(-1.,0.,0.));
#218=DIRECTION('',(0.,6.12323399573677E-17,1.));
#219=DIRECTION('center_axis',(0.,-6.12323399573677E-17,-1.));
#220=DIRECTION('ref_axis',(-1.,0.,0.));
#221=DIRECTION('center_axis',(0.,6.12323399573677E-17,1.));
#222=DIRECTION('ref_axis',(-1.,0.,0.));
#223=DIRECTION('',(0.640184399664478,-3.13599910365266E-17,0.768221279597378));
#224=DIRECTION('center_axis',(0.,-6.12323399573677E-17,-1.));
#225=DIRECTION('ref_axis',(-1.,0.,0.));
#226=DIRECTION('center_axis',(0.,-6.12323399573677E-17,-1.));
#227=DIRECTION('ref_axis',(-1.,0.,0.));
#228=DIRECTION('',(0.,6.12323399573677E-17,1.));
#229=DIRECTION('center_axis',(0.,-6.12323399573677E-17,-1.));
#230=DIRECTION('ref_axis',(-1.,0.,0.));
#231=DIRECTION('center_axis',(0.,6.12323399573677E-17,1.));
#232=DIRECTION('ref_axis',(-1.,0.,0.));
#233=DIRECTION('',(0.481918749772146,-5.36527503961272E-18,0.876215908676652));
#234=DIRECTION('center_axis',(0.,-6.12323399573677E-17,-1.));
#235=DIRECTION('ref_axis',(-1.,0.,0.));
#236=DIRECTION('center_axis',(0.,-6.12323399573677E-17,-1.));
#237=DIRECTION('ref_axis',(-1.,0.,0.));
#238=DIRECTION('',(0.,6.12323399573677E-17,1.));
#239=DIRECTION('center_axis',(0.,-6.12323399573677E-17,-1.));
#240=DIRECTION('ref_axis',(-1.,0.,0.));
#241=DIRECTION('center_axis',(0.,6.12323399573677E-17,1.));
#242=DIRECTION('ref_axis',(-1.,0.,0.));
#243=DIRECTION('',(0.7926239891046,-5.97344265344218E-17,0.609710760849692));
#244=DIRECTION('center_axis',(0.,-6.12323399573677E-17,-1.));
#245=DIRECTION('ref_axis',(-1.,0.,0.));
#246=DIRECTION('center_axis',(0.,6.12323399573677E-17,1.));
#247=DIRECTION('ref_axis',(0.,-1.,6.12323399573677E-17));
#248=DIRECTION('',(0.,0.,1.));
#249=DIRECTION('',(1.,0.,0.));
#250=CARTESIAN_POINT('',(0.,0.,0.));
#251=CARTESIAN_POINT('',(0.,0.,0.));
#252=CARTESIAN_POINT('',(0.,0.,3.95443777234292E-15));
#253=CARTESIAN_POINT('',(0.,0.,3.95443777234292E-15));
#254=CARTESIAN_POINT('',(0.,0.,160.));
#255=CARTESIAN_POINT('Origin',(0.,8.11710182500482E-15,81.3599889369606));
#256=CARTESIAN_POINT('',(0.,-80.2549979256802,2.71997787392093));
#257=CARTESIAN_POINT('',(80.2549979256802,-6.52661269918455E-15,2.71997787392093));
#258=CARTESIAN_POINT('Origin',(0.,3.30178993334162E-15,2.71997787392093));
#259=CARTESIAN_POINT('Origin',(0.,3.30178993334162E-15,2.71997787392093));
#260=CARTESIAN_POINT('',(95.0000000000001,1.29826912476815E-15,160.));
#261=CARTESIAN_POINT('',(87.6274989628401,-2.6141717872082E-15,81.3599889369606));
#262=CARTESIAN_POINT('Origin',(0.,1.2932413716668E-14,160.));
#263=CARTESIAN_POINT('Origin',(0.,3.31893634336129E-15,3.00000000000011));
#264=CARTESIAN_POINT('',(0.,-77.2680952475023,1.13686837721616E-13));
#265=CARTESIAN_POINT('Origin',(0.,3.13523932348919E-15,1.13686837721616E-13));
#266=CARTESIAN_POINT('Origin',(0.,-77.2680952475024,3.00000000000011));
#267=CARTESIAN_POINT('Origin',(-63.6340476237511,3.13523932348918E-15,5.6843418860808E-14));
#268=CARTESIAN_POINT('',(50.,-2.98799467224759E-15,0.));
#269=CARTESIAN_POINT('Origin',(0.,3.13523932348918E-15,0.));
#270=CARTESIAN_POINT('Origin',(0.,3.28832017338259E-15,2.49999999999994));
#271=CARTESIAN_POINT('',(50.,-2.68183297246076E-15,4.99999999999989));
#272=CARTESIAN_POINT('',(50.,-2.83491382235417E-15,2.49999999999994));
#273=CARTESIAN_POINT('Origin',(0.,3.44140102327601E-15,4.99999999999989));
#274=CARTESIAN_POINT('Origin',(0.,3.90064357295628E-15,12.5));
#275=CARTESIAN_POINT('',(62.5000000000001,-3.29415637203443E-15,20.0000000000002));
#276=CARTESIAN_POINT('',(56.25,-2.98799467224759E-15,12.5));
#277=CARTESIAN_POINT('Origin',(0.,4.35988612263654E-15,20.0000000000001));
#278=CARTESIAN_POINT('Origin',(0.,6.5030180211444E-15,55.));
#279=CARTESIAN_POINT('',(62.5,9.92107424981303E-16,89.9999999999999));
#280=CARTESIAN_POINT('',(62.5,-1.15102447352656E-15,55.));
#281=CARTESIAN_POINT('Origin',(0.,8.64614991965226E-15,89.9999999999999));
#282=CARTESIAN_POINT('Origin',(0.,9.25847331922594E-15,99.9999999999999));
#283=CARTESIAN_POINT('',(73.4999999999998,8.69642745066606E-16,110.));
#284=CARTESIAN_POINT('',(67.9999999999999,9.30875085023955E-16,99.9999999999999));
#285=CARTESIAN_POINT('Origin',(0.,9.87079671879962E-15,110.));
#286=CARTESIAN_POINT('Origin',(0.,1.12485243678404E-14,132.5));
#287=CARTESIAN_POINT('',(73.4999999999999,3.62509804314815E-15,155.));
#288=CARTESIAN_POINT('',(73.4999999999999,2.24737039410737E-15,132.5));
#289=CARTESIAN_POINT('Origin',(0.,1.26262520168812E-14,155.));
#290=CARTESIAN_POINT('Origin',(0.,1.27793328667746E-14,157.5));
#291=CARTESIAN_POINT('',(80.,3.13523932348919E-15,160.));
#292=CARTESIAN_POINT('',(76.75,3.38016868331866E-15,157.5));
#293=CARTESIAN_POINT('Origin',(0.,1.2932413716668E-14,160.));
#294=CARTESIAN_POINT('Origin',(-87.5,1.2932413716668E-14,160.));
#295=CARTESIAN_POINT('',(0.,0.,0.));
#296=UNCERTAINTY_MEASURE_WITH_UNIT(LENGTH_MEASURE(0.001),#302,
'DISTANCE_ACCURACY_VALUE',
'Maximum model space distance between geometric entities at asserted c
onnectivities');
#297=UNCERTAINTY_MEASURE_WITH_UNIT(LENGTH_MEASURE(0.001),#302,
'DISTANCE_ACCURACY_VALUE',
'Maximum model space distance between geometric entities at asserted c
onnectivities');
#298=UNCERTAINTY_MEASURE_WITH_UNIT(LENGTH_MEASURE(0.001),#302,
'DISTANCE_ACCURACY_VALUE',
'Maximum model space distance between geometric entities at asserted c
onnectivities');
#299=(
GEOMETRIC_REPRESENTATION_CONTEXT(3)
GLOBAL_UNCERTAINTY_ASSIGNED_CONTEXT((#296))
GLOBAL_UNIT_ASSIGNED_CONTEXT((#302,#303,#304))
REPRESENTATION_CONTEXT('','3D')
);
#300=(
GEOMETRIC_REPRESENTATION_CONTEXT(3)
GLOBAL_UNCERTAINTY_ASSIGNED_CONTEXT((#297))
GLOBAL_UNIT_ASSIGNED_CONTEXT((#302,#303,#304))
REPRESENTATION_CONTEXT('','3D')
);
#301=(
GEOMETRIC_REPRESENTATION_CONTEXT(3)
GLOBAL_UNCERTAINTY_ASSIGNED_CONTEXT((#298))
GLOBAL_UNIT_ASSIGNED_CONTEXT((#302,#303,#304))
REPRESENTATION_CONTEXT('','3D')
);
#302=(
LENGTH_UNIT()
NAMED_UNIT(*)
SI_UNIT(.CENTI.,.METRE.)
);
#303=(
NAMED_UNIT(*)
PLANE_ANGLE_UNIT()
SI_UNIT($,.RADIAN.)
);
#304=(
NAMED_UNIT(*)
SI_UNIT($,.STERADIAN.)
SOLID_ANGLE_UNIT()
);
#305=SHAPE_DEFINITION_REPRESENTATION(#307,#310);
#306=SHAPE_DEFINITION_REPRESENTATION(#308,#311);
#307=PRODUCT_DEFINITION_SHAPE('',$,#313);
#308=PRODUCT_DEFINITION_SHAPE('',$,#314);
#309=PRODUCT_DEFINITION_SHAPE($,$,#21);
#310=SHAPE_REPRESENTATION('',(#167,#191),#299);
#311=SHAPE_REPRESENTATION('',(#168),#300);
#312=PRODUCT_DEFINITION_CONTEXT('part definition',#320,'design');
#313=PRODUCT_DEFINITION('Product','Product',#315,#312);
#314=PRODUCT_DEFINITION('*S0','*S0',#316,#312);
#315=PRODUCT_DEFINITION_FORMATION('',$,#322);
#316=PRODUCT_DEFINITION_FORMATION('',$,#323);
#317=PRODUCT_RELATED_PRODUCT_CATEGORY('Product','Product',(#322));
#318=PRODUCT_RELATED_PRODUCT_CATEGORY('*S0','*S0',(#323));
#319=APPLICATION_PROTOCOL_DEFINITION('international standard',
'automotive_design',2009,#320);
#320=APPLICATION_CONTEXT(
'Core Data for Automotive Mechanical Design Process');
#321=PRODUCT_CONTEXT('part definition',#320,'mechanical');
#322=PRODUCT('Product','Product',$,(#321));
#323=PRODUCT('*S0','*S0',$,(#321));
#324=PRESENTATION_STYLE_ASSIGNMENT((#327));
#325=PRESENTATION_STYLE_ASSIGNMENT((#328));
#326=PRESENTATION_STYLE_ASSIGNMENT((#329));
#327=SURFACE_STYLE_USAGE(.BOTH.,#330);
#328=SURFACE_STYLE_USAGE(.BOTH.,#331);
#329=SURFACE_STYLE_USAGE(.BOTH.,#332);
#330=SURFACE_SIDE_STYLE('',(#333));
#331=SURFACE_SIDE_STYLE('',(#334));
#332=SURFACE_SIDE_STYLE('',(#335));
#333=SURFACE_STYLE_FILL_AREA(#336);
#334=SURFACE_STYLE_FILL_AREA(#337);
#335=SURFACE_STYLE_FILL_AREA(#338);
#336=FILL_AREA_STYLE('',(#339));
#337=FILL_AREA_STYLE('',(#340));
#338=FILL_AREA_STYLE('',(#341));
#339=FILL_AREA_STYLE_COLOUR('',#342);
#340=FILL_AREA_STYLE_COLOUR('',#343);
#341=FILL_AREA_STYLE_COLOUR('',#344);
#342=COLOUR_RGB('',1.,1.,1.);
#343=COLOUR_RGB('',1.,0.,1.);
#344=COLOUR_RGB('',0.905882352941176,0.909803921568627,0.996078431372549);
ENDSEC;
END-ISO-10303-21;
