ISO-10303-21;
HEADER;
/* Generated by software containing ST-Developer
 * from STEP Tools, Inc. (www.steptools.com) 
 */

FILE_DESCRIPTION(
/* description */ (''),
/* implementation_level */ '2;1');

FILE_NAME(
/* name */ '19842.070X_3D.stp',
/* time_stamp */ '2024-12-12T07:55:14+01:00',
/* author */ ('CAD'),
/* organization */ (''),
/* preprocessor_version */ 'ST-DEVELOPER v20',
/* originating_system */ 'AutoCAD Mechanical',
/* authorisation */ '');

FILE_SCHEMA (('AUTOMOTIVE_DESIGN { 1 0 10303 214 3 1 1 }'));
ENDSEC;

DATA;
#10=MECHANICAL_DESIGN_GEOMETRIC_PRESENTATION_REPRESENTATION('',(#18),#334);
#11=PRESENTATION_LAYER_ASSIGNMENT('11','D\X\E4mmung',(#19));
#12=SHAPE_REPRESENTATION_RELATIONSHIP('SRR','None',#343,#13);
#13=ADVANCED_BREP_SHAPE_REPRESENTATION('',(#19),#332);
#14=ITEM_DEFINED_TRANSFORMATION($,$,#185,#212);
#15=(
REPRESENTATION_RELATIONSHIP($,$,#344,#343)
REPRESENTATION_RELATIONSHIP_WITH_TRANSFORMATION(#14)
SHAPE_REPRESENTATION_RELATIONSHIP()
);
#16=CONTEXT_DEPENDENT_SHAPE_REPRESENTATION(#15,#342);
#17=NEXT_ASSEMBLY_USAGE_OCCURRENCE('B3C','B3C','B3C',#346,#347,'B3C');
#18=STYLED_ITEM('',(#357),#19);
#19=MANIFOLD_SOLID_BREP('FE9',#183);
#20=TOROIDAL_SURFACE('',#210,62.1816463358975,3.);
#21=CONICAL_SURFACE('',#195,41.5,0.614662951922212);
#22=CONICAL_SURFACE('',#199,50.5000000000001,0.785398163397441);
#23=CONICAL_SURFACE('',#203,59.2499999999998,0.855052737126014);
#24=CONICAL_SURFACE('',#207,70.0879020356729,0.0624188099959528);
#25=LINE('',#288,#33);
#26=LINE('',#295,#34);
#27=LINE('',#299,#35);
#28=LINE('',#303,#36);
#29=LINE('',#307,#37);
#30=LINE('',#311,#38);
#31=LINE('',#315,#39);
#32=LINE('',#325,#40);
#33=VECTOR('',#225,42.5);
#34=VECTOR('',#234,35.5);
#35=VECTOR('',#239,41.5);
#36=VECTOR('',#244,47.5000000000001);
#37=VECTOR('',#249,50.5000000000001);
#38=VECTOR('',#254,53.4999999999999);
#39=VECTOR('',#259,59.2499999999998);
#40=VECTOR('',#272,70.0879020356729);
#41=CYLINDRICAL_SURFACE('',#189,42.5);
#42=CYLINDRICAL_SURFACE('',#193,35.5);
#43=CYLINDRICAL_SURFACE('',#197,47.5000000000001);
#44=CYLINDRICAL_SURFACE('',#201,53.4999999999999);
#45=FACE_BOUND('',#61,.T.);
#46=FACE_BOUND('',#64,.T.);
#47=FACE_BOUND('',#72,.T.);
#48=FACE_OUTER_BOUND('',#60,.T.);
#49=FACE_OUTER_BOUND('',#62,.T.);
#50=FACE_OUTER_BOUND('',#63,.T.);
#51=FACE_OUTER_BOUND('',#65,.T.);
#52=FACE_OUTER_BOUND('',#66,.T.);
#53=FACE_OUTER_BOUND('',#67,.T.);
#54=FACE_OUTER_BOUND('',#68,.T.);
#55=FACE_OUTER_BOUND('',#69,.T.);
#56=FACE_OUTER_BOUND('',#70,.T.);
#57=FACE_OUTER_BOUND('',#71,.T.);
#58=FACE_OUTER_BOUND('',#73,.T.);
#59=FACE_OUTER_BOUND('',#74,.T.);
#60=EDGE_LOOP('',(#124));
#61=EDGE_LOOP('',(#125));
#62=EDGE_LOOP('',(#126,#127,#128,#129));
#63=EDGE_LOOP('',(#130));
#64=EDGE_LOOP('',(#131));
#65=EDGE_LOOP('',(#132,#133,#134,#135));
#66=EDGE_LOOP('',(#136,#137,#138,#139));
#67=EDGE_LOOP('',(#140,#141,#142,#143));
#68=EDGE_LOOP('',(#144,#145,#146,#147));
#69=EDGE_LOOP('',(#148,#149,#150,#151));
#70=EDGE_LOOP('',(#152,#153,#154,#155));
#71=EDGE_LOOP('',(#156));
#72=EDGE_LOOP('',(#157));
#73=EDGE_LOOP('',(#158,#159,#160,#161,#162));
#74=EDGE_LOOP('',(#163,#164,#165,#166,#167));
#75=CIRCLE('',#187,62.1816463358975);
#76=CIRCLE('',#188,42.5);
#77=CIRCLE('',#190,42.5);
#78=CIRCLE('',#192,35.5000000000001);
#79=CIRCLE('',#194,35.5);
#80=CIRCLE('',#196,47.5);
#81=CIRCLE('',#198,47.5000000000002);
#82=CIRCLE('',#200,53.5);
#83=CIRCLE('',#202,53.4999999999999);
#84=CIRCLE('',#204,64.9999999999998);
#85=CIRCLE('',#206,74.9999999999995);
#86=CIRCLE('',#208,65.1758040713462);
#87=CIRCLE('',#209,65.1758040713462);
#88=CIRCLE('',#211,3.);
#89=VERTEX_POINT('',#282);
#90=VERTEX_POINT('',#284);
#91=VERTEX_POINT('',#287);
#92=VERTEX_POINT('',#291);
#93=VERTEX_POINT('',#294);
#94=VERTEX_POINT('',#298);
#95=VERTEX_POINT('',#302);
#96=VERTEX_POINT('',#306);
#97=VERTEX_POINT('',#310);
#98=VERTEX_POINT('',#314);
#99=VERTEX_POINT('',#318);
#100=VERTEX_POINT('',#321);
#101=VERTEX_POINT('',#322);
#102=EDGE_CURVE('',#89,#89,#75,.T.);
#103=EDGE_CURVE('',#90,#90,#76,.T.);
#104=EDGE_CURVE('',#90,#91,#25,.T.);
#105=EDGE_CURVE('',#91,#91,#77,.T.);
#106=EDGE_CURVE('',#92,#92,#78,.T.);
#107=EDGE_CURVE('',#92,#93,#26,.T.);
#108=EDGE_CURVE('',#93,#93,#79,.T.);
#109=EDGE_CURVE('',#93,#94,#27,.T.);
#110=EDGE_CURVE('',#94,#94,#80,.T.);
#111=EDGE_CURVE('',#94,#95,#28,.T.);
#112=EDGE_CURVE('',#95,#95,#81,.T.);
#113=EDGE_CURVE('',#95,#96,#29,.T.);
#114=EDGE_CURVE('',#96,#96,#82,.T.);
#115=EDGE_CURVE('',#96,#97,#30,.T.);
#116=EDGE_CURVE('',#97,#97,#83,.T.);
#117=EDGE_CURVE('',#97,#98,#31,.T.);
#118=EDGE_CURVE('',#98,#98,#84,.T.);
#119=EDGE_CURVE('',#99,#99,#85,.T.);
#120=EDGE_CURVE('',#100,#101,#86,.T.);
#121=EDGE_CURVE('',#101,#100,#87,.T.);
#122=EDGE_CURVE('',#101,#99,#32,.T.);
#123=EDGE_CURVE('',#89,#100,#88,.T.);
#124=ORIENTED_EDGE('',*,*,#102,.T.);
#125=ORIENTED_EDGE('',*,*,#103,.F.);
#126=ORIENTED_EDGE('',*,*,#103,.T.);
#127=ORIENTED_EDGE('',*,*,#104,.T.);
#128=ORIENTED_EDGE('',*,*,#105,.F.);
#129=ORIENTED_EDGE('',*,*,#104,.F.);
#130=ORIENTED_EDGE('',*,*,#105,.T.);
#131=ORIENTED_EDGE('',*,*,#106,.F.);
#132=ORIENTED_EDGE('',*,*,#106,.T.);
#133=ORIENTED_EDGE('',*,*,#107,.T.);
#134=ORIENTED_EDGE('',*,*,#108,.F.);
#135=ORIENTED_EDGE('',*,*,#107,.F.);
#136=ORIENTED_EDGE('',*,*,#108,.T.);
#137=ORIENTED_EDGE('',*,*,#109,.T.);
#138=ORIENTED_EDGE('',*,*,#110,.F.);
#139=ORIENTED_EDGE('',*,*,#109,.F.);
#140=ORIENTED_EDGE('',*,*,#110,.T.);
#141=ORIENTED_EDGE('',*,*,#111,.T.);
#142=ORIENTED_EDGE('',*,*,#112,.F.);
#143=ORIENTED_EDGE('',*,*,#111,.F.);
#144=ORIENTED_EDGE('',*,*,#112,.T.);
#145=ORIENTED_EDGE('',*,*,#113,.T.);
#146=ORIENTED_EDGE('',*,*,#114,.F.);
#147=ORIENTED_EDGE('',*,*,#113,.F.);
#148=ORIENTED_EDGE('',*,*,#114,.T.);
#149=ORIENTED_EDGE('',*,*,#115,.T.);
#150=ORIENTED_EDGE('',*,*,#116,.F.);
#151=ORIENTED_EDGE('',*,*,#115,.F.);
#152=ORIENTED_EDGE('',*,*,#116,.T.);
#153=ORIENTED_EDGE('',*,*,#117,.T.);
#154=ORIENTED_EDGE('',*,*,#118,.F.);
#155=ORIENTED_EDGE('',*,*,#117,.F.);
#156=ORIENTED_EDGE('',*,*,#119,.F.);
#157=ORIENTED_EDGE('',*,*,#118,.T.);
#158=ORIENTED_EDGE('',*,*,#120,.F.);
#159=ORIENTED_EDGE('',*,*,#121,.F.);
#160=ORIENTED_EDGE('',*,*,#122,.T.);
#161=ORIENTED_EDGE('',*,*,#119,.T.);
#162=ORIENTED_EDGE('',*,*,#122,.F.);
#163=ORIENTED_EDGE('',*,*,#102,.F.);
#164=ORIENTED_EDGE('',*,*,#123,.T.);
#165=ORIENTED_EDGE('',*,*,#120,.T.);
#166=ORIENTED_EDGE('',*,*,#121,.T.);
#167=ORIENTED_EDGE('',*,*,#123,.F.);
#168=PLANE('',#186);
#169=PLANE('',#191);
#170=PLANE('',#205);
#171=ADVANCED_FACE('',(#48,#45),#168,.T.);
#172=ADVANCED_FACE('',(#49),#41,.F.);
#173=ADVANCED_FACE('',(#50,#46),#169,.T.);
#174=ADVANCED_FACE('',(#51),#42,.F.);
#175=ADVANCED_FACE('',(#52),#21,.F.);
#176=ADVANCED_FACE('',(#53),#43,.F.);
#177=ADVANCED_FACE('',(#54),#22,.F.);
#178=ADVANCED_FACE('',(#55),#44,.F.);
#179=ADVANCED_FACE('',(#56),#23,.F.);
#180=ADVANCED_FACE('',(#57,#47),#170,.T.);
#181=ADVANCED_FACE('',(#58),#24,.T.);
#182=ADVANCED_FACE('',(#59),#20,.T.);
#183=CLOSED_SHELL('',(#171,#172,#173,#174,#175,#176,#177,#178,#179,#180,
#181,#182));
#184=AXIS2_PLACEMENT_3D('',#279,#213,#214);
#185=AXIS2_PLACEMENT_3D('',#280,#215,#216);
#186=AXIS2_PLACEMENT_3D('',#281,#217,#218);
#187=AXIS2_PLACEMENT_3D('',#283,#219,#220);
#188=AXIS2_PLACEMENT_3D('',#285,#221,#222);
#189=AXIS2_PLACEMENT_3D('',#286,#223,#224);
#190=AXIS2_PLACEMENT_3D('',#289,#226,#227);
#191=AXIS2_PLACEMENT_3D('',#290,#228,#229);
#192=AXIS2_PLACEMENT_3D('',#292,#230,#231);
#193=AXIS2_PLACEMENT_3D('',#293,#232,#233);
#194=AXIS2_PLACEMENT_3D('',#296,#235,#236);
#195=AXIS2_PLACEMENT_3D('',#297,#237,#238);
#196=AXIS2_PLACEMENT_3D('',#300,#240,#241);
#197=AXIS2_PLACEMENT_3D('',#301,#242,#243);
#198=AXIS2_PLACEMENT_3D('',#304,#245,#246);
#199=AXIS2_PLACEMENT_3D('',#305,#247,#248);
#200=AXIS2_PLACEMENT_3D('',#308,#250,#251);
#201=AXIS2_PLACEMENT_3D('',#309,#252,#253);
#202=AXIS2_PLACEMENT_3D('',#312,#255,#256);
#203=AXIS2_PLACEMENT_3D('',#313,#257,#258);
#204=AXIS2_PLACEMENT_3D('',#316,#260,#261);
#205=AXIS2_PLACEMENT_3D('',#317,#262,#263);
#206=AXIS2_PLACEMENT_3D('',#319,#264,#265);
#207=AXIS2_PLACEMENT_3D('',#320,#266,#267);
#208=AXIS2_PLACEMENT_3D('',#323,#268,#269);
#209=AXIS2_PLACEMENT_3D('',#324,#270,#271);
#210=AXIS2_PLACEMENT_3D('',#326,#273,#274);
#211=AXIS2_PLACEMENT_3D('',#327,#275,#276);
#212=AXIS2_PLACEMENT_3D('',#328,#277,#278);
#213=DIRECTION('axis',(0.,0.,1.));
#214=DIRECTION('refdir',(1.,0.,0.));
#215=DIRECTION('axis',(0.,0.,1.));
#216=DIRECTION('refdir',(1.,0.,0.));
#217=DIRECTION('center_axis',(2.67498441697918E-15,-6.12323399573677E-17,
-1.));
#218=DIRECTION('ref_axis',(0.,1.,-6.12323399573677E-17));
#219=DIRECTION('center_axis',(2.67498441697918E-15,-6.12323399573677E-17,
-1.));
#220=DIRECTION('ref_axis',(-1.,-1.60213184067059E-31,-2.61647985653669E-15));
#221=DIRECTION('center_axis',(2.67498441697918E-15,-6.12323399573677E-17,
-1.));
#222=DIRECTION('ref_axis',(-1.,-1.60213184067059E-31,-2.61647985653669E-15));
#223=DIRECTION('center_axis',(2.67498441697918E-15,-6.12323399573677E-17,
-1.));
#224=DIRECTION('ref_axis',(-1.,-1.60213184067059E-31,-2.61647985653669E-15));
#225=DIRECTION('',(-2.67498441697918E-15,6.12323399573677E-17,1.));
#226=DIRECTION('center_axis',(2.67498441697918E-15,-6.12323399573677E-17,
-1.));
#227=DIRECTION('ref_axis',(-1.,-1.60213184067059E-31,-2.61647985653669E-15));
#228=DIRECTION('center_axis',(2.67498441697918E-15,-6.12323399573677E-17,
-1.));
#229=DIRECTION('ref_axis',(0.,1.,-6.12323399573677E-17));
#230=DIRECTION('center_axis',(2.67498441697918E-15,-6.12323399573677E-17,
-1.));
#231=DIRECTION('ref_axis',(-1.,-1.60213184067059E-31,-2.61647985653669E-15));
#232=DIRECTION('center_axis',(2.67498441697918E-15,-6.12323399573677E-17,
-1.));
#233=DIRECTION('ref_axis',(-1.,-1.60213184067059E-31,-2.61647985653669E-15));
#234=DIRECTION('',(-2.67498441697918E-15,6.12323399573677E-17,1.));
#235=DIRECTION('center_axis',(2.67498441697918E-15,-6.12323399573677E-17,
-1.));
#236=DIRECTION('ref_axis',(-1.,-1.60213184067059E-31,-2.61647985653669E-15));
#237=DIRECTION('center_axis',(-2.67498441697918E-15,6.12323399573677E-17,
1.));
#238=DIRECTION('ref_axis',(-1.,-1.60213184067059E-31,-2.61647985653669E-15));
#239=DIRECTION('',(0.576683197598691,-2.05984692684594E-17,0.816967863264737));
#240=DIRECTION('center_axis',(2.67498441697918E-15,-6.12323399573677E-17,
-1.));
#241=DIRECTION('ref_axis',(-1.,-1.60213184067059E-31,-2.61647985653669E-15));
#242=DIRECTION('center_axis',(2.67498441697918E-15,-6.12323399573677E-17,
-1.));
#243=DIRECTION('ref_axis',(-1.,-1.60213184067059E-31,-2.61647985653669E-15));
#244=DIRECTION('',(-2.67498441697918E-15,6.12323399573677E-17,1.));
#245=DIRECTION('center_axis',(2.67498441697918E-15,-6.12323399573677E-17,
-1.));
#246=DIRECTION('ref_axis',(-1.,-1.60213184067059E-31,-2.61647985653669E-15));
#247=DIRECTION('center_axis',(-2.67498441697918E-15,6.12323399573677E-17,
1.));
#248=DIRECTION('ref_axis',(-1.,-1.60213184067059E-31,-2.61647985653669E-15));
#249=DIRECTION('',(0.70710678118654,-4.32978028117736E-17,0.707106781186555));
#250=DIRECTION('center_axis',(2.67498441697918E-15,-6.12323399573677E-17,
-1.));
#251=DIRECTION('ref_axis',(-1.,-1.60213184067059E-31,-2.61647985653669E-15));
#252=DIRECTION('center_axis',(2.67498441697918E-15,-6.12323399573677E-17,
-1.));
#253=DIRECTION('ref_axis',(-1.,-1.60213184067059E-31,-2.61647985653669E-15));
#254=DIRECTION('',(-2.67498441697918E-15,6.12323399573677E-17,1.));
#255=DIRECTION('center_axis',(2.67498441697918E-15,-6.12323399573677E-17,
-1.));
#256=DIRECTION('ref_axis',(-1.,-1.60213184067059E-31,-2.61647985653669E-15));
#257=DIRECTION('center_axis',(-2.67498441697918E-15,6.12323399573677E-17,
1.));
#258=DIRECTION('ref_axis',(-1.,-1.60213184067059E-31,-2.61647985653669E-15));
#259=DIRECTION('',(0.754605522163501,-5.22331655885817E-17,0.656178714924791));
#260=DIRECTION('center_axis',(2.67498441697918E-15,-6.12323399573677E-17,
-1.));
#261=DIRECTION('ref_axis',(-1.,-1.60213184067059E-31,-2.61647985653669E-15));
#262=DIRECTION('center_axis',(-2.67498441697918E-15,6.12323399573677E-17,
1.));
#263=DIRECTION('ref_axis',(0.,-1.,6.12323399573677E-17));
#264=DIRECTION('center_axis',(2.67498441697918E-15,-6.12323399573677E-17,
-1.));
#265=DIRECTION('ref_axis',(-1.,-1.60213184067059E-31,-2.61647985653669E-15));
#266=DIRECTION('center_axis',(-2.67498441697918E-15,6.12323399573677E-17,
1.));
#267=DIRECTION('ref_axis',(-1.,-1.60213184067059E-31,-2.61647985653669E-15));
#268=DIRECTION('center_axis',(2.67498441697918E-15,-6.12323399573677E-17,
-1.));
#269=DIRECTION('ref_axis',(-1.,-1.60213184067059E-31,-2.61647985653669E-15));
#270=DIRECTION('center_axis',(2.67498441697918E-15,-6.12323399573677E-17,
-1.));
#271=DIRECTION('ref_axis',(-1.,-1.60213184067059E-31,-2.61647985653669E-15));
#272=DIRECTION('',(0.0623782861551733,5.34739579333682E-17,0.998052578482889));
#273=DIRECTION('center_axis',(2.67498441697918E-15,-6.12323399573677E-17,
-1.));
#274=DIRECTION('ref_axis',(0.,1.,0.));
#275=DIRECTION('center_axis',(-1.,-1.6379555520113E-31,-2.67498441697918E-15));
#276=DIRECTION('ref_axis',(0.,-1.,6.12323399573677E-17));
#277=DIRECTION('',(0.,0.,1.));
#278=DIRECTION('',(1.,0.,0.));
#279=CARTESIAN_POINT('',(0.,0.,0.));
#280=CARTESIAN_POINT('',(0.,0.,0.));
#281=CARTESIAN_POINT('Origin',(151.66495623719,-0.784575166760737,-80.0000000000002));
#282=CARTESIAN_POINT('',(204.005779405139,-62.9662215026583,-79.9999999999999));
#283=CARTESIAN_POINT('Origin',(204.005779405139,-0.784575166760737,-79.9999999999999));
#284=CARTESIAN_POINT('',(246.505779405139,-0.784575166760742,-80.0000000000001));
#285=CARTESIAN_POINT('Origin',(204.005779405139,-0.784575166760737,-80.0000000000002));
#286=CARTESIAN_POINT('Origin',(204.005779405139,-0.784575166760737,-79.0000000000002));
#287=CARTESIAN_POINT('',(246.505779405139,-0.784575166760742,-78.0000000000002));
#288=CARTESIAN_POINT('',(246.505779405139,-0.784575166760742,-79.0000000000001));
#289=CARTESIAN_POINT('Origin',(204.005779405139,-0.784575166760736,-78.0000000000003));
#290=CARTESIAN_POINT('Origin',(165.005779405139,-0.784575166760736,-78.0000000000005));
#291=CARTESIAN_POINT('',(239.505779405139,-0.784575166760741,-78.0000000000003));
#292=CARTESIAN_POINT('Origin',(204.005779405139,-0.784575166760736,-78.0000000000004));
#293=CARTESIAN_POINT('Origin',(204.005779405139,-0.784575166760736,-75.5000000000002));
#294=CARTESIAN_POINT('',(239.505779405139,-0.78457516676074,-73.));
#295=CARTESIAN_POINT('',(239.505779405139,-0.784575166760741,-75.5000000000001));
#296=CARTESIAN_POINT('Origin',(204.005779405139,-0.784575166760736,-73.0000000000001));
#297=CARTESIAN_POINT('Origin',(204.005779405139,-0.784575166760736,-64.500000000001));
#298=CARTESIAN_POINT('',(251.505779405139,-0.784575166760741,-56.0000000000018));
#299=CARTESIAN_POINT('',(245.505779405139,-0.784575166760741,-64.5000000000009));
#300=CARTESIAN_POINT('Origin',(204.005779405139,-0.784575166760735,-56.0000000000019));
#301=CARTESIAN_POINT('Origin',(204.005779405139,-0.784575166760733,-23.0000000000009));
#302=CARTESIAN_POINT('',(251.505779405139,-0.784575166760737,10.0000000000001));
#303=CARTESIAN_POINT('',(251.505779405139,-0.784575166760739,-23.0000000000008));
#304=CARTESIAN_POINT('Origin',(204.005779405138,-0.784575166760731,10.));
#305=CARTESIAN_POINT('Origin',(204.005779405138,-0.784575166760731,12.9999999999999));
#306=CARTESIAN_POINT('',(257.505779405138,-0.784575166760737,16.));
#307=CARTESIAN_POINT('',(254.505779405139,-0.784575166760737,13.));
#308=CARTESIAN_POINT('Origin',(204.005779405138,-0.784575166760731,15.9999999999999));
#309=CARTESIAN_POINT('Origin',(204.005779405138,-0.784575166760729,43.));
#310=CARTESIAN_POINT('',(257.505779405138,-0.784575166760734,70.0000000000002));
#311=CARTESIAN_POINT('',(257.505779405138,-0.784575166760736,43.0000000000001));
#312=CARTESIAN_POINT('Origin',(204.005779405138,-0.784575166760727,70.0000000000001));
#313=CARTESIAN_POINT('Origin',(204.005779405138,-0.784575166760727,75.0000000000002));
#314=CARTESIAN_POINT('',(269.005779405138,-0.784575166760735,80.0000000000004));
#315=CARTESIAN_POINT('',(263.255779405138,-0.784575166760734,75.0000000000003));
#316=CARTESIAN_POINT('Origin',(204.005779405138,-0.784575166760727,80.0000000000002));
#317=CARTESIAN_POINT('Origin',(134.005779405139,-0.784575166760727,80.));
#318=CARTESIAN_POINT('',(279.005779405138,-0.784575166760736,80.0000000000005));
#319=CARTESIAN_POINT('Origin',(204.005779405138,-0.784575166760727,80.0000000000002));
#320=CARTESIAN_POINT('Origin',(204.005779405138,-0.784575166760732,1.40643257076732));
#321=CARTESIAN_POINT('',(204.005779405139,-65.9603792381069,-77.1871348584655));
#322=CARTESIAN_POINT('',(269.181583476485,-0.784575166760744,-77.1871348584654));
#323=CARTESIAN_POINT('Origin',(204.005779405139,-0.784575166760736,-77.1871348584655));
#324=CARTESIAN_POINT('Origin',(204.005779405139,-0.784575166760736,-77.1871348584655));
#325=CARTESIAN_POINT('',(274.093681440811,-0.78457516676074,1.40643257076749));
#326=CARTESIAN_POINT('Origin',(204.005779405139,-0.784575166760736,-76.9999999999999));
#327=CARTESIAN_POINT('Origin',(204.005779405139,-62.9662215026583,-76.9999999999999));
#328=CARTESIAN_POINT('',(0.,0.,0.));
#329=UNCERTAINTY_MEASURE_WITH_UNIT(LENGTH_MEASURE(0.001),#335,
'DISTANCE_ACCURACY_VALUE',
'Maximum model space distance between geometric entities at asserted c
onnectivities');
#330=UNCERTAINTY_MEASURE_WITH_UNIT(LENGTH_MEASURE(0.001),#335,
'DISTANCE_ACCURACY_VALUE',
'Maximum model space distance between geometric entities at asserted c
onnectivities');
#331=UNCERTAINTY_MEASURE_WITH_UNIT(LENGTH_MEASURE(0.001),#335,
'DISTANCE_ACCURACY_VALUE',
'Maximum model space distance between geometric entities at asserted c
onnectivities');
#332=(
GEOMETRIC_REPRESENTATION_CONTEXT(3)
GLOBAL_UNCERTAINTY_ASSIGNED_CONTEXT((#329))
GLOBAL_UNIT_ASSIGNED_CONTEXT((#335,#336,#337))
REPRESENTATION_CONTEXT('','3D')
);
#333=(
GEOMETRIC_REPRESENTATION_CONTEXT(3)
GLOBAL_UNCERTAINTY_ASSIGNED_CONTEXT((#330))
GLOBAL_UNIT_ASSIGNED_CONTEXT((#335,#336,#337))
REPRESENTATION_CONTEXT('','3D')
);
#334=(
GEOMETRIC_REPRESENTATION_CONTEXT(3)
GLOBAL_UNCERTAINTY_ASSIGNED_CONTEXT((#331))
GLOBAL_UNIT_ASSIGNED_CONTEXT((#335,#336,#337))
REPRESENTATION_CONTEXT('','3D')
);
#335=(
LENGTH_UNIT()
NAMED_UNIT(*)
SI_UNIT(.CENTI.,.METRE.)
);
#336=(
NAMED_UNIT(*)
PLANE_ANGLE_UNIT()
SI_UNIT($,.RADIAN.)
);
#337=(
NAMED_UNIT(*)
SI_UNIT($,.STERADIAN.)
SOLID_ANGLE_UNIT()
);
#338=SHAPE_DEFINITION_REPRESENTATION(#340,#343);
#339=SHAPE_DEFINITION_REPRESENTATION(#341,#344);
#340=PRODUCT_DEFINITION_SHAPE('',$,#346);
#341=PRODUCT_DEFINITION_SHAPE('',$,#347);
#342=PRODUCT_DEFINITION_SHAPE($,$,#17);
#343=SHAPE_REPRESENTATION('',(#184,#212),#332);
#344=SHAPE_REPRESENTATION('',(#185),#333);
#345=PRODUCT_DEFINITION_CONTEXT('part definition',#353,'design');
#346=PRODUCT_DEFINITION('Product','Product',#348,#345);
#347=PRODUCT_DEFINITION('*S2','*S2',#349,#345);
#348=PRODUCT_DEFINITION_FORMATION('',$,#355);
#349=PRODUCT_DEFINITION_FORMATION('',$,#356);
#350=PRODUCT_RELATED_PRODUCT_CATEGORY('Product','Product',(#355));
#351=PRODUCT_RELATED_PRODUCT_CATEGORY('*S2','*S2',(#356));
#352=APPLICATION_PROTOCOL_DEFINITION('international standard',
'automotive_design',2009,#353);
#353=APPLICATION_CONTEXT(
'Core Data for Automotive Mechanical Design Process');
#354=PRODUCT_CONTEXT('part definition',#353,'mechanical');
#355=PRODUCT('Product','Product',$,(#354));
#356=PRODUCT('*S2','*S2',$,(#354));
#357=PRESENTATION_STYLE_ASSIGNMENT((#358));
#358=SURFACE_STYLE_USAGE(.BOTH.,#359);
#359=SURFACE_SIDE_STYLE('',(#360));
#360=SURFACE_STYLE_FILL_AREA(#361);
#361=FILL_AREA_STYLE('',(#362));
#362=FILL_AREA_STYLE_COLOUR('',#363);
#363=COLOUR_RGB('',0.905882352941176,0.909803921568627,0.996078431372549);
ENDSEC;
END-ISO-10303-21;
