ISO-10303-21;
HEADER;
/* Generated by software containing ST-Developer
 * from STEP Tools, Inc. (www.steptools.com) 
 */

FILE_DESCRIPTION(
/* description */ (''),
/* implementation_level */ '2;1');

FILE_NAME(
/* name */ '17202.100A_3D.stp',
/* time_stamp */ '2024-12-12T07:39:35+01:00',
/* author */ ('CAD'),
/* organization */ (''),
/* preprocessor_version */ 'ST-DEVELOPER v20',
/* originating_system */ 'AutoCAD Mechanical',
/* authorisation */ '');

FILE_SCHEMA (('AUTOMOTIVE_DESIGN { 1 0 10303 214 3 1 1 }'));
ENDSEC;

DATA;
#10=MECHANICAL_DESIGN_GEOMETRIC_PRESENTATION_REPRESENTATION('',(#221,#222),
#451);
#11=PRESENTATION_LAYER_ASSIGNMENT('2','DEFPOINTS',(#223));
#12=PRESENTATION_LAYER_ASSIGNMENT('3','Material (Aluminium)',(#22));
#13=ADVANCED_BREP_SHAPE_REPRESENTATION('',(#22),#449);
#14=SHAPE_REPRESENTATION_RELATIONSHIP('SRR','None',#460,#16);
#15=SHAPE_REPRESENTATION_RELATIONSHIP('SRR','None',#460,#13);
#16=GEOMETRICALLY_BOUNDED_SURFACE_SHAPE_REPRESENTATION('',(#17),#449);
#17=GEOMETRIC_SET('GEOSET',(#223));
#18=ITEM_DEFINED_TRANSFORMATION($,$,#245,#284);
#19=(
REPRESENTATION_RELATIONSHIP($,$,#461,#460)
REPRESENTATION_RELATIONSHIP_WITH_TRANSFORMATION(#18)
SHAPE_REPRESENTATION_RELATIONSHIP()
);
#20=CONTEXT_DEPENDENT_SHAPE_REPRESENTATION(#19,#459);
#21=NEXT_ASSEMBLY_USAGE_OCCURRENCE('712A','712A','712A',#463,#464,
'712A');
#22=MANIFOLD_SOLID_BREP('F936',#220);
#23=FACE_BOUND('',#58,.T.);
#24=PLANE('',#265);
#25=CONICAL_SURFACE('',#252,48.5077221232863,0.124354994546762);
#26=CONICAL_SURFACE('',#258,50.5,0.124354994546761);
#27=CONICAL_SURFACE('',#272,47.45,0.643501108793245);
#28=CONICAL_SURFACE('',#276,49.0077221232863,1.44644133224813);
#29=CONICAL_SURFACE('',#280,49.05,0.643501108793221);
#30=CYLINDRICAL_SURFACE('',#250,49.);
#31=CYLINDRICAL_SURFACE('',#260,51.);
#32=CYLINDRICAL_SURFACE('',#262,47.5);
#33=CYLINDRICAL_SURFACE('',#267,45.5);
#34=FACE_OUTER_BOUND('',#50,.T.);
#35=FACE_OUTER_BOUND('',#51,.T.);
#36=FACE_OUTER_BOUND('',#52,.T.);
#37=FACE_OUTER_BOUND('',#53,.T.);
#38=FACE_OUTER_BOUND('',#54,.T.);
#39=FACE_OUTER_BOUND('',#55,.T.);
#40=FACE_OUTER_BOUND('',#56,.T.);
#41=FACE_OUTER_BOUND('',#57,.T.);
#42=FACE_OUTER_BOUND('',#59,.T.);
#43=FACE_OUTER_BOUND('',#60,.T.);
#44=FACE_OUTER_BOUND('',#61,.T.);
#45=FACE_OUTER_BOUND('',#62,.T.);
#46=FACE_OUTER_BOUND('',#63,.T.);
#47=FACE_OUTER_BOUND('',#64,.T.);
#48=FACE_OUTER_BOUND('',#65,.T.);
#49=FACE_OUTER_BOUND('',#66,.T.);
#50=EDGE_LOOP('',(#136,#137,#138,#139));
#51=EDGE_LOOP('',(#140,#141,#142,#143));
#52=EDGE_LOOP('',(#144,#145,#146,#147));
#53=EDGE_LOOP('',(#148,#149,#150,#151));
#54=EDGE_LOOP('',(#152,#153,#154,#155));
#55=EDGE_LOOP('',(#156,#157,#158,#159));
#56=EDGE_LOOP('',(#160,#161,#162,#163));
#57=EDGE_LOOP('',(#164));
#58=EDGE_LOOP('',(#165));
#59=EDGE_LOOP('',(#166,#167,#168,#169));
#60=EDGE_LOOP('',(#170,#171,#172,#173));
#61=EDGE_LOOP('',(#174,#175,#176,#177));
#62=EDGE_LOOP('',(#178,#179,#180,#181));
#63=EDGE_LOOP('',(#182,#183,#184,#185));
#64=EDGE_LOOP('',(#186,#187,#188,#189));
#65=EDGE_LOOP('',(#190,#191,#192,#193));
#66=EDGE_LOOP('',(#194,#195,#196,#197));
#67=CIRCLE('',#247,49.);
#68=CIRCLE('',#248,1.);
#69=CIRCLE('',#249,48.9922778767137);
#70=CIRCLE('',#251,49.);
#71=CIRCLE('',#253,48.0154442465727);
#72=CIRCLE('',#255,51.);
#73=CIRCLE('',#256,1.);
#74=CIRCLE('',#257,50.9922778767137);
#75=CIRCLE('',#259,50.);
#76=CIRCLE('',#261,51.);
#77=CIRCLE('',#263,47.5);
#78=CIRCLE('',#264,47.5);
#79=CIRCLE('',#266,45.5);
#80=CIRCLE('',#268,45.5);
#81=CIRCLE('',#270,47.2999999999998);
#82=CIRCLE('',#271,9.);
#83=CIRCLE('',#273,47.6000000000002);
#84=CIRCLE('',#275,7.);
#85=CIRCLE('',#278,49.2000000000002);
#86=CIRCLE('',#279,9.);
#87=CIRCLE('',#281,48.8999999999998);
#88=CIRCLE('',#283,7.);
#89=VERTEX_POINT('',#383);
#90=VERTEX_POINT('',#385);
#91=VERTEX_POINT('',#389);
#92=VERTEX_POINT('',#393);
#93=VERTEX_POINT('',#397);
#94=VERTEX_POINT('',#399);
#95=VERTEX_POINT('',#403);
#96=VERTEX_POINT('',#407);
#97=VERTEX_POINT('',#411);
#98=VERTEX_POINT('',#413);
#99=VERTEX_POINT('',#417);
#100=VERTEX_POINT('',#420);
#101=VERTEX_POINT('',#424);
#102=VERTEX_POINT('',#428);
#103=VERTEX_POINT('',#436);
#104=VERTEX_POINT('',#440);
#105=EDGE_CURVE('',#89,#89,#67,.T.);
#106=EDGE_CURVE('',#89,#90,#68,.T.);
#107=EDGE_CURVE('',#90,#90,#69,.T.);
#108=EDGE_CURVE('',#91,#91,#70,.T.);
#109=EDGE_CURVE('',#91,#89,#225,.T.);
#110=EDGE_CURVE('',#90,#92,#226,.T.);
#111=EDGE_CURVE('',#92,#92,#71,.T.);
#112=EDGE_CURVE('',#93,#93,#72,.T.);
#113=EDGE_CURVE('',#93,#94,#73,.T.);
#114=EDGE_CURVE('',#94,#94,#74,.T.);
#115=EDGE_CURVE('',#94,#95,#227,.T.);
#116=EDGE_CURVE('',#95,#95,#75,.T.);
#117=EDGE_CURVE('',#96,#96,#76,.T.);
#118=EDGE_CURVE('',#96,#93,#228,.T.);
#119=EDGE_CURVE('',#97,#97,#77,.T.);
#120=EDGE_CURVE('',#97,#98,#229,.T.);
#121=EDGE_CURVE('',#98,#98,#78,.T.);
#122=EDGE_CURVE('',#99,#99,#79,.T.);
#123=EDGE_CURVE('',#99,#100,#230,.T.);
#124=EDGE_CURVE('',#100,#100,#80,.T.);
#125=EDGE_CURVE('',#101,#101,#81,.T.);
#126=EDGE_CURVE('',#101,#100,#82,.T.);
#127=EDGE_CURVE('',#101,#102,#231,.T.);
#128=EDGE_CURVE('',#102,#102,#83,.T.);
#129=EDGE_CURVE('',#102,#91,#84,.T.);
#130=EDGE_CURVE('',#92,#95,#232,.T.);
#131=EDGE_CURVE('',#103,#103,#85,.T.);
#132=EDGE_CURVE('',#103,#96,#86,.T.);
#133=EDGE_CURVE('',#104,#104,#87,.T.);
#134=EDGE_CURVE('',#104,#103,#233,.T.);
#135=EDGE_CURVE('',#104,#98,#88,.T.);
#136=ORIENTED_EDGE('',*,*,#105,.T.);
#137=ORIENTED_EDGE('',*,*,#106,.T.);
#138=ORIENTED_EDGE('',*,*,#107,.T.);
#139=ORIENTED_EDGE('',*,*,#106,.F.);
#140=ORIENTED_EDGE('',*,*,#108,.T.);
#141=ORIENTED_EDGE('',*,*,#109,.T.);
#142=ORIENTED_EDGE('',*,*,#105,.F.);
#143=ORIENTED_EDGE('',*,*,#109,.F.);
#144=ORIENTED_EDGE('',*,*,#107,.F.);
#145=ORIENTED_EDGE('',*,*,#110,.T.);
#146=ORIENTED_EDGE('',*,*,#111,.F.);
#147=ORIENTED_EDGE('',*,*,#110,.F.);
#148=ORIENTED_EDGE('',*,*,#112,.T.);
#149=ORIENTED_EDGE('',*,*,#113,.T.);
#150=ORIENTED_EDGE('',*,*,#114,.T.);
#151=ORIENTED_EDGE('',*,*,#113,.F.);
#152=ORIENTED_EDGE('',*,*,#114,.F.);
#153=ORIENTED_EDGE('',*,*,#115,.T.);
#154=ORIENTED_EDGE('',*,*,#116,.T.);
#155=ORIENTED_EDGE('',*,*,#115,.F.);
#156=ORIENTED_EDGE('',*,*,#117,.F.);
#157=ORIENTED_EDGE('',*,*,#118,.T.);
#158=ORIENTED_EDGE('',*,*,#112,.F.);
#159=ORIENTED_EDGE('',*,*,#118,.F.);
#160=ORIENTED_EDGE('',*,*,#119,.F.);
#161=ORIENTED_EDGE('',*,*,#120,.T.);
#162=ORIENTED_EDGE('',*,*,#121,.T.);
#163=ORIENTED_EDGE('',*,*,#120,.F.);
#164=ORIENTED_EDGE('',*,*,#119,.T.);
#165=ORIENTED_EDGE('',*,*,#122,.F.);
#166=ORIENTED_EDGE('',*,*,#122,.T.);
#167=ORIENTED_EDGE('',*,*,#123,.T.);
#168=ORIENTED_EDGE('',*,*,#124,.F.);
#169=ORIENTED_EDGE('',*,*,#123,.F.);
#170=ORIENTED_EDGE('',*,*,#125,.F.);
#171=ORIENTED_EDGE('',*,*,#126,.T.);
#172=ORIENTED_EDGE('',*,*,#124,.T.);
#173=ORIENTED_EDGE('',*,*,#126,.F.);
#174=ORIENTED_EDGE('',*,*,#125,.T.);
#175=ORIENTED_EDGE('',*,*,#127,.T.);
#176=ORIENTED_EDGE('',*,*,#128,.F.);
#177=ORIENTED_EDGE('',*,*,#127,.F.);
#178=ORIENTED_EDGE('',*,*,#128,.T.);
#179=ORIENTED_EDGE('',*,*,#129,.T.);
#180=ORIENTED_EDGE('',*,*,#108,.F.);
#181=ORIENTED_EDGE('',*,*,#129,.F.);
#182=ORIENTED_EDGE('',*,*,#111,.T.);
#183=ORIENTED_EDGE('',*,*,#130,.T.);
#184=ORIENTED_EDGE('',*,*,#116,.F.);
#185=ORIENTED_EDGE('',*,*,#130,.F.);
#186=ORIENTED_EDGE('',*,*,#131,.F.);
#187=ORIENTED_EDGE('',*,*,#132,.T.);
#188=ORIENTED_EDGE('',*,*,#117,.T.);
#189=ORIENTED_EDGE('',*,*,#132,.F.);
#190=ORIENTED_EDGE('',*,*,#133,.F.);
#191=ORIENTED_EDGE('',*,*,#134,.T.);
#192=ORIENTED_EDGE('',*,*,#131,.T.);
#193=ORIENTED_EDGE('',*,*,#134,.F.);
#194=ORIENTED_EDGE('',*,*,#133,.T.);
#195=ORIENTED_EDGE('',*,*,#135,.T.);
#196=ORIENTED_EDGE('',*,*,#121,.F.);
#197=ORIENTED_EDGE('',*,*,#135,.F.);
#198=TOROIDAL_SURFACE('',#246,48.,1.);
#199=TOROIDAL_SURFACE('',#254,50.,1.);
#200=TOROIDAL_SURFACE('',#269,54.5,9.);
#201=TOROIDAL_SURFACE('',#274,42.,7.);
#202=TOROIDAL_SURFACE('',#277,42.,9.);
#203=TOROIDAL_SURFACE('',#282,54.5,7.);
#204=ADVANCED_FACE('',(#34),#198,.F.);
#205=ADVANCED_FACE('',(#35),#30,.F.);
#206=ADVANCED_FACE('',(#36),#25,.F.);
#207=ADVANCED_FACE('',(#37),#199,.T.);
#208=ADVANCED_FACE('',(#38),#26,.T.);
#209=ADVANCED_FACE('',(#39),#31,.T.);
#210=ADVANCED_FACE('',(#40),#32,.T.);
#211=ADVANCED_FACE('',(#41,#23),#24,.T.);
#212=ADVANCED_FACE('',(#42),#33,.F.);
#213=ADVANCED_FACE('',(#43),#200,.T.);
#214=ADVANCED_FACE('',(#44),#27,.F.);
#215=ADVANCED_FACE('',(#45),#201,.F.);
#216=ADVANCED_FACE('',(#46),#28,.F.);
#217=ADVANCED_FACE('',(#47),#202,.T.);
#218=ADVANCED_FACE('',(#48),#29,.T.);
#219=ADVANCED_FACE('',(#49),#203,.F.);
#220=CLOSED_SHELL('',(#204,#205,#206,#207,#208,#209,#210,#211,#212,#213,
#214,#215,#216,#217,#218,#219));
#221=STYLED_ITEM('',(#475),#223);
#222=STYLED_ITEM('',(#476),#22);
#223=TRIMMED_CURVE('F23E',#224,(#380,PARAMETER_VALUE(0.)),(#381,
PARAMETER_VALUE(1.)),.T.,.PARAMETER.);
#224=LINE('',#379,#234);
#225=LINE('',#391,#235);
#226=LINE('',#394,#236);
#227=LINE('',#404,#237);
#228=LINE('',#409,#238);
#229=LINE('',#414,#239);
#230=LINE('',#421,#240);
#231=LINE('',#429,#241);
#232=LINE('',#434,#242);
#233=LINE('',#442,#243);
#234=VECTOR('',#289,500.);
#235=VECTOR('',#302,49.);
#236=VECTOR('',#305,48.5077221232863);
#237=VECTOR('',#318,50.5);
#238=VECTOR('',#325,51.);
#239=VECTOR('',#330,47.5);
#240=VECTOR('',#339,45.5);
#241=VECTOR('',#350,47.45);
#242=VECTOR('',#359,49.0077221232863);
#243=VECTOR('',#370,49.05);
#244=AXIS2_PLACEMENT_3D('',#377,#285,#286);
#245=AXIS2_PLACEMENT_3D('',#378,#287,#288);
#246=AXIS2_PLACEMENT_3D('',#382,#290,#291);
#247=AXIS2_PLACEMENT_3D('',#384,#292,#293);
#248=AXIS2_PLACEMENT_3D('',#386,#294,#295);
#249=AXIS2_PLACEMENT_3D('',#387,#296,#297);
#250=AXIS2_PLACEMENT_3D('',#388,#298,#299);
#251=AXIS2_PLACEMENT_3D('',#390,#300,#301);
#252=AXIS2_PLACEMENT_3D('',#392,#303,#304);
#253=AXIS2_PLACEMENT_3D('',#395,#306,#307);
#254=AXIS2_PLACEMENT_3D('',#396,#308,#309);
#255=AXIS2_PLACEMENT_3D('',#398,#310,#311);
#256=AXIS2_PLACEMENT_3D('',#400,#312,#313);
#257=AXIS2_PLACEMENT_3D('',#401,#314,#315);
#258=AXIS2_PLACEMENT_3D('',#402,#316,#317);
#259=AXIS2_PLACEMENT_3D('',#405,#319,#320);
#260=AXIS2_PLACEMENT_3D('',#406,#321,#322);
#261=AXIS2_PLACEMENT_3D('',#408,#323,#324);
#262=AXIS2_PLACEMENT_3D('',#410,#326,#327);
#263=AXIS2_PLACEMENT_3D('',#412,#328,#329);
#264=AXIS2_PLACEMENT_3D('',#415,#331,#332);
#265=AXIS2_PLACEMENT_3D('',#416,#333,#334);
#266=AXIS2_PLACEMENT_3D('',#418,#335,#336);
#267=AXIS2_PLACEMENT_3D('',#419,#337,#338);
#268=AXIS2_PLACEMENT_3D('',#422,#340,#341);
#269=AXIS2_PLACEMENT_3D('',#423,#342,#343);
#270=AXIS2_PLACEMENT_3D('',#425,#344,#345);
#271=AXIS2_PLACEMENT_3D('',#426,#346,#347);
#272=AXIS2_PLACEMENT_3D('',#427,#348,#349);
#273=AXIS2_PLACEMENT_3D('',#430,#351,#352);
#274=AXIS2_PLACEMENT_3D('',#431,#353,#354);
#275=AXIS2_PLACEMENT_3D('',#432,#355,#356);
#276=AXIS2_PLACEMENT_3D('',#433,#357,#358);
#277=AXIS2_PLACEMENT_3D('',#435,#360,#361);
#278=AXIS2_PLACEMENT_3D('',#437,#362,#363);
#279=AXIS2_PLACEMENT_3D('',#438,#364,#365);
#280=AXIS2_PLACEMENT_3D('',#439,#366,#367);
#281=AXIS2_PLACEMENT_3D('',#441,#368,#369);
#282=AXIS2_PLACEMENT_3D('',#443,#371,#372);
#283=AXIS2_PLACEMENT_3D('',#444,#373,#374);
#284=AXIS2_PLACEMENT_3D('',#445,#375,#376);
#285=DIRECTION('axis',(0.,0.,1.));
#286=DIRECTION('refdir',(1.,0.,0.));
#287=DIRECTION('axis',(0.,0.,1.));
#288=DIRECTION('refdir',(1.,0.,0.));
#289=DIRECTION('',(0.,0.,1.));
#290=DIRECTION('center_axis',(-1.22464679914735E-16,0.,-1.));
#291=DIRECTION('ref_axis',(-1.,0.,0.));
#292=DIRECTION('center_axis',(-1.22464679914735E-16,0.,-1.));
#293=DIRECTION('ref_axis',(1.,0.,-1.22492718915913E-16));
#294=DIRECTION('center_axis',(-1.22464679914735E-16,-1.,1.49975978266186E-32));
#295=DIRECTION('ref_axis',(1.,-1.22464679914735E-16,0.));
#296=DIRECTION('center_axis',(0.,0.,1.));
#297=DIRECTION('ref_axis',(1.,-6.12323399573677E-17,0.));
#298=DIRECTION('center_axis',(-1.22464679914735E-16,0.,-1.));
#299=DIRECTION('ref_axis',(-1.,0.,0.));
#300=DIRECTION('center_axis',(-1.22464679914735E-16,0.,-1.));
#301=DIRECTION('ref_axis',(1.,0.,-1.22464679914735E-16));
#302=DIRECTION('',(1.22464679914735E-16,0.,1.));
#303=DIRECTION('center_axis',(-1.22464679914735E-16,0.,-1.));
#304=DIRECTION('ref_axis',(-1.,0.,0.));
#305=DIRECTION('',(-0.124034734589209,1.51898740697767E-17,0.992277876713668));
#306=DIRECTION('center_axis',(-1.22464679914735E-16,0.,-1.));
#307=DIRECTION('ref_axis',(1.,0.,-1.22464679914735E-16));
#308=DIRECTION('center_axis',(-1.22464679914735E-16,0.,-1.));
#309=DIRECTION('ref_axis',(-1.,0.,0.));
#310=DIRECTION('center_axis',(1.22464679914735E-16,0.,1.));
#311=DIRECTION('ref_axis',(1.,0.,-1.2245106889248E-16));
#312=DIRECTION('center_axis',(-1.22464679914735E-16,-1.,1.49975978266186E-32));
#313=DIRECTION('ref_axis',(1.,-1.22464679914735E-16,0.));
#314=DIRECTION('center_axis',(0.,0.,-1.));
#315=DIRECTION('ref_axis',(1.,-6.12323399573677E-17,0.));
#316=DIRECTION('center_axis',(-1.22464679914735E-16,0.,-1.));
#317=DIRECTION('ref_axis',(-1.,0.,0.));
#318=DIRECTION('',(-0.124034734589208,1.51898740697765E-17,0.992277876713668));
#319=DIRECTION('center_axis',(-1.22464679914735E-16,0.,-1.));
#320=DIRECTION('ref_axis',(1.,0.,-1.22464679914735E-16));
#321=DIRECTION('center_axis',(-1.22464679914735E-16,0.,-1.));
#322=DIRECTION('ref_axis',(-1.,0.,0.));
#323=DIRECTION('center_axis',(-1.22464679914735E-16,0.,-1.));
#324=DIRECTION('ref_axis',(1.,0.,-1.22464679914735E-16));
#325=DIRECTION('',(1.22464679914735E-16,0.,1.));
#326=DIRECTION('center_axis',(-1.22464679914735E-16,0.,-1.));
#327=DIRECTION('ref_axis',(-1.,0.,0.));
#328=DIRECTION('center_axis',(-1.22464679914735E-16,0.,-1.));
#329=DIRECTION('ref_axis',(1.,0.,-1.22464679914735E-16));
#330=DIRECTION('',(1.22464679914735E-16,0.,1.));
#331=DIRECTION('center_axis',(-1.22464679914735E-16,0.,-1.));
#332=DIRECTION('ref_axis',(1.,0.,-1.22464679914735E-16));
#333=DIRECTION('center_axis',(-1.22464679914735E-16,0.,-1.));
#334=DIRECTION('ref_axis',(-1.,0.,1.22464679914735E-16));
#335=DIRECTION('center_axis',(-1.22464679914735E-16,0.,-1.));
#336=DIRECTION('ref_axis',(1.,0.,-1.22464679914735E-16));
#337=DIRECTION('center_axis',(-1.22464679914735E-16,0.,-1.));
#338=DIRECTION('ref_axis',(-1.,0.,0.));
#339=DIRECTION('',(1.22464679914735E-16,0.,1.));
#340=DIRECTION('center_axis',(-1.22464679914735E-16,0.,-1.));
#341=DIRECTION('ref_axis',(1.,0.,-1.22464679914735E-16));
#342=DIRECTION('center_axis',(-1.22464679914735E-16,0.,-1.));
#343=DIRECTION('ref_axis',(-1.,0.,1.11896493820488E-16));
#344=DIRECTION('center_axis',(-1.22464679914735E-16,0.,-1.));
#345=DIRECTION('ref_axis',(1.,0.,-1.22464679914735E-16));
#346=DIRECTION('center_axis',(-1.22464679914735E-16,-1.,1.49975978266186E-32));
#347=DIRECTION('ref_axis',(1.,-1.22464679914735E-16,-1.11896493820488E-16));
#348=DIRECTION('center_axis',(1.22464679914735E-16,0.,1.));
#349=DIRECTION('ref_axis',(-1.,0.,0.));
#350=DIRECTION('',(0.599999999999969,-7.34788079488374E-17,0.800000000000023));
#351=DIRECTION('center_axis',(-1.22464679914735E-16,0.,-1.));
#352=DIRECTION('ref_axis',(1.,0.,-1.22464679914735E-16));
#353=DIRECTION('center_axis',(-1.22464679914735E-16,0.,-1.));
#354=DIRECTION('ref_axis',(-1.,0.,0.));
#355=DIRECTION('center_axis',(-1.22464679914735E-16,-1.,1.49975978266186E-32));
#356=DIRECTION('ref_axis',(1.,-1.22464679914735E-16,0.));
#357=DIRECTION('center_axis',(1.22464679914735E-16,0.,1.));
#358=DIRECTION('ref_axis',(-1.,0.,0.));
#359=DIRECTION('',(0.992277876713668,-1.21518992558213E-16,0.124034734589209));
#360=DIRECTION('center_axis',(-1.22464679914735E-16,0.,-1.));
#361=DIRECTION('ref_axis',(-1.,0.,0.));
#362=DIRECTION('center_axis',(-1.22464679914735E-16,0.,-1.));
#363=DIRECTION('ref_axis',(1.,0.,-1.22464679914735E-16));
#364=DIRECTION('center_axis',(-1.22464679914735E-16,-1.,1.49975978266186E-32));
#365=DIRECTION('ref_axis',(1.,-1.22464679914735E-16,0.));
#366=DIRECTION('center_axis',(1.22464679914735E-16,0.,1.));
#367=DIRECTION('ref_axis',(-1.,0.,0.));
#368=DIRECTION('center_axis',(-1.22464679914735E-16,0.,-1.));
#369=DIRECTION('ref_axis',(1.,0.,-1.22464679914735E-16));
#370=DIRECTION('',(0.599999999999949,-7.34788079488349E-17,0.800000000000038));
#371=DIRECTION('center_axis',(-1.22464679914735E-16,0.,-1.));
#372=DIRECTION('ref_axis',(-1.,0.,1.15535404188634E-16));
#373=DIRECTION('center_axis',(-1.22464679914735E-16,-1.,1.49975978266186E-32));
#374=DIRECTION('ref_axis',(1.,-1.22464679914735E-16,-1.15535404188634E-16));
#375=DIRECTION('',(0.,0.,1.));
#376=DIRECTION('',(1.,0.,0.));
#377=CARTESIAN_POINT('',(0.,0.,0.));
#378=CARTESIAN_POINT('',(0.,0.,0.));
#379=CARTESIAN_POINT('',(0.,0.,0.));
#380=CARTESIAN_POINT('',(0.,0.,0.));
#381=CARTESIAN_POINT('',(0.,0.,500.));
#382=CARTESIAN_POINT('Origin',(6.0229749392397E-14,0.,491.813226755105));
#383=CARTESIAN_POINT('',(49.0000000000001,-6.00076931582203E-15,491.813226755105));
#384=CARTESIAN_POINT('Origin',(6.0229749392397E-14,0.,491.813226755105));
#385=CARTESIAN_POINT('',(48.9922778767137,-5.99982362846551E-15,491.937261489694));
#386=CARTESIAN_POINT('Origin',(48.0000000000001,-5.8783046359073E-15,491.813226755105));
#387=CARTESIAN_POINT('Origin',(6.03961325396085E-14,-2.99991181423275E-15,
491.937261489694));
#388=CARTESIAN_POINT('Origin',(3.40987889810362E-14,0.,278.437742251701));
#389=CARTESIAN_POINT('',(49.,-6.00076931582203E-15,65.));
#390=CARTESIAN_POINT('Origin',(7.96020419445779E-15,0.,65.));
#391=CARTESIAN_POINT('',(49.,-6.00076931582203E-15,278.437742251701));
#392=CARTESIAN_POINT('Origin',(6.07196669884214E-14,0.,495.813707517112));
#393=CARTESIAN_POINT('',(48.0154442465727,-5.88019601062034E-15,499.751930530822));
#394=CARTESIAN_POINT('',(48.5077221232864,-5.94048266322119E-15,495.813707517112));
#395=CARTESIAN_POINT('Origin',(6.12019602092281E-14,0.,499.751930530822));
#396=CARTESIAN_POINT('Origin',(6.02449981428322E-14,0.,491.937742251701));
#397=CARTESIAN_POINT('',(51.0000000000001,-6.2456986756515E-15,491.937742251701));
#398=CARTESIAN_POINT('Origin',(6.02449981428322E-14,0.,491.937742251701));
#399=CARTESIAN_POINT('',(50.9922778767137,-6.24475298829498E-15,492.061776986291));
#400=CARTESIAN_POINT('Origin',(50.0000000000001,-6.12323399573677E-15,491.937742251701));
#401=CARTESIAN_POINT('Origin',(6.3948846218409E-14,-3.12237649414749E-15,
492.061776986291));
#402=CARTESIAN_POINT('Origin',(6.07424812377087E-14,0.,496.));
#403=CARTESIAN_POINT('',(50.0000000000001,-6.12323399573677E-15,500.));
#404=CARTESIAN_POINT('',(50.5000000000001,-6.18446633569413E-15,496.));
#405=CARTESIAN_POINT('Origin',(6.12323399573677E-14,0.,500.));
#406=CARTESIAN_POINT('Origin',(3.41064133562538E-14,0.,278.5));
#407=CARTESIAN_POINT('',(51.,-6.2456986756515E-15,65.));
#408=CARTESIAN_POINT('Origin',(7.96020419445779E-15,0.,65.));
#409=CARTESIAN_POINT('',(51.,-6.2456986756515E-15,278.5));
#410=CARTESIAN_POINT('Origin',(3.36777869765522E-15,0.,27.5));
#411=CARTESIAN_POINT('',(47.5,-5.81707229594993E-15,-3.5527136788005E-15));
#412=CARTESIAN_POINT('Origin',(-2.95822839457879E-30,0.,0.));
#413=CARTESIAN_POINT('',(47.5,-5.81707229594993E-15,55.));
#414=CARTESIAN_POINT('',(47.5,-5.81707229594993E-15,27.5));
#415=CARTESIAN_POINT('Origin',(6.73555739531044E-15,0.,55.));
#416=CARTESIAN_POINT('Origin',(-45.5,0.,2.78607146806023E-15));
#417=CARTESIAN_POINT('',(45.5,-5.57214293612046E-15,-1.06581410364015E-14));
#418=CARTESIAN_POINT('Origin',(-3.94430452610506E-30,0.,-8.88178419700125E-15));
#419=CARTESIAN_POINT('Origin',(3.36777869765522E-15,0.,27.5));
#420=CARTESIAN_POINT('',(45.5,-5.57214293612046E-15,55.));
#421=CARTESIAN_POINT('',(45.5,-5.57214293612046E-15,27.5));
#422=CARTESIAN_POINT('Origin',(6.73555739531044E-15,0.,55.));
#423=CARTESIAN_POINT('Origin',(6.73555739531044E-15,0.,55.));
#424=CARTESIAN_POINT('',(47.2999999999998,-5.79257935996695E-15,60.3999999999996));
#425=CARTESIAN_POINT('Origin',(7.39686666684997E-15,0.,60.3999999999996));
#426=CARTESIAN_POINT('Origin',(54.5,-6.67432505535308E-15,55.));
#427=CARTESIAN_POINT('Origin',(7.42135960283295E-15,0.,60.5999999999999));
#428=CARTESIAN_POINT('',(47.6000000000002,-5.82931876394143E-15,60.8000000000003));
#429=CARTESIAN_POINT('',(47.45,-5.81094906195419E-15,60.5999999999999));
#430=CARTESIAN_POINT('Origin',(7.44585253881594E-15,0.,60.8000000000003));
#431=CARTESIAN_POINT('Origin',(7.96020419445779E-15,0.,65.));
#432=CARTESIAN_POINT('Origin',(42.,-5.14351655641888E-15,65.));
#433=CARTESIAN_POINT('Origin',(6.12171500832979E-14,0.,499.875965265411));
#434=CARTESIAN_POINT('',(49.0077221232864,-6.00171500317855E-15,499.875965265411));
#435=CARTESIAN_POINT('Origin',(7.96020419445779E-15,0.,65.));
#436=CARTESIAN_POINT('',(49.2000000000002,-6.02526225180501E-15,59.6000000000003));
#437=CARTESIAN_POINT('Origin',(7.29889492291826E-15,0.,59.6000000000003));
#438=CARTESIAN_POINT('Origin',(42.,-5.14351655641888E-15,65.));
#439=CARTESIAN_POINT('Origin',(7.27440198693528E-15,0.,59.4));
#440=CARTESIAN_POINT('',(48.8999999999998,-5.98852284783053E-15,59.1999999999997));
#441=CARTESIAN_POINT('Origin',(7.24990905095229E-15,0.,59.1999999999997));
#442=CARTESIAN_POINT('',(49.05,-6.00689254981777E-15,59.4));
#443=CARTESIAN_POINT('Origin',(6.73555739531044E-15,0.,55.));
#444=CARTESIAN_POINT('Origin',(54.5,-6.67432505535308E-15,55.));
#445=CARTESIAN_POINT('',(0.,0.,0.));
#446=UNCERTAINTY_MEASURE_WITH_UNIT(LENGTH_MEASURE(0.001),#452,
'DISTANCE_ACCURACY_VALUE',
'Maximum model space distance between geometric entities at asserted c
onnectivities');
#447=UNCERTAINTY_MEASURE_WITH_UNIT(LENGTH_MEASURE(0.001),#452,
'DISTANCE_ACCURACY_VALUE',
'Maximum model space distance between geometric entities at asserted c
onnectivities');
#448=UNCERTAINTY_MEASURE_WITH_UNIT(LENGTH_MEASURE(0.001),#452,
'DISTANCE_ACCURACY_VALUE',
'Maximum model space distance between geometric entities at asserted c
onnectivities');
#449=(
GEOMETRIC_REPRESENTATION_CONTEXT(3)
GLOBAL_UNCERTAINTY_ASSIGNED_CONTEXT((#446))
GLOBAL_UNIT_ASSIGNED_CONTEXT((#452,#453,#454))
REPRESENTATION_CONTEXT('','3D')
);
#450=(
GEOMETRIC_REPRESENTATION_CONTEXT(3)
GLOBAL_UNCERTAINTY_ASSIGNED_CONTEXT((#447))
GLOBAL_UNIT_ASSIGNED_CONTEXT((#452,#453,#454))
REPRESENTATION_CONTEXT('','3D')
);
#451=(
GEOMETRIC_REPRESENTATION_CONTEXT(3)
GLOBAL_UNCERTAINTY_ASSIGNED_CONTEXT((#448))
GLOBAL_UNIT_ASSIGNED_CONTEXT((#452,#453,#454))
REPRESENTATION_CONTEXT('','3D')
);
#452=(
LENGTH_UNIT()
NAMED_UNIT(*)
SI_UNIT(.CENTI.,.METRE.)
);
#453=(
NAMED_UNIT(*)
PLANE_ANGLE_UNIT()
SI_UNIT($,.RADIAN.)
);
#454=(
NAMED_UNIT(*)
SI_UNIT($,.STERADIAN.)
SOLID_ANGLE_UNIT()
);
#455=SHAPE_DEFINITION_REPRESENTATION(#457,#460);
#456=SHAPE_DEFINITION_REPRESENTATION(#458,#461);
#457=PRODUCT_DEFINITION_SHAPE('',$,#463);
#458=PRODUCT_DEFINITION_SHAPE('',$,#464);
#459=PRODUCT_DEFINITION_SHAPE($,$,#21);
#460=SHAPE_REPRESENTATION('',(#244,#284),#449);
#461=SHAPE_REPRESENTATION('',(#245),#450);
#462=PRODUCT_DEFINITION_CONTEXT('part definition',#470,'design');
#463=PRODUCT_DEFINITION('Product','Product',#465,#462);
#464=PRODUCT_DEFINITION('*S0','*S0',#466,#462);
#465=PRODUCT_DEFINITION_FORMATION('',$,#472);
#466=PRODUCT_DEFINITION_FORMATION('',$,#473);
#467=PRODUCT_RELATED_PRODUCT_CATEGORY('Product','Product',(#472));
#468=PRODUCT_RELATED_PRODUCT_CATEGORY('*S0','*S0',(#473));
#469=APPLICATION_PROTOCOL_DEFINITION('international standard',
'automotive_design',2009,#470);
#470=APPLICATION_CONTEXT(
'Core Data for Automotive Mechanical Design Process');
#471=PRODUCT_CONTEXT('part definition',#470,'mechanical');
#472=PRODUCT('Product','Product',$,(#471));
#473=PRODUCT('*S0','*S0',$,(#471));
#474=PRESENTATION_STYLE_ASSIGNMENT((#477));
#475=PRESENTATION_STYLE_ASSIGNMENT((#478));
#476=PRESENTATION_STYLE_ASSIGNMENT((#479));
#477=SURFACE_STYLE_USAGE(.BOTH.,#480);
#478=SURFACE_STYLE_USAGE(.BOTH.,#481);
#479=SURFACE_STYLE_USAGE(.BOTH.,#482);
#480=SURFACE_SIDE_STYLE('',(#483));
#481=SURFACE_SIDE_STYLE('',(#484));
#482=SURFACE_SIDE_STYLE('',(#485));
#483=SURFACE_STYLE_FILL_AREA(#486);
#484=SURFACE_STYLE_FILL_AREA(#487);
#485=SURFACE_STYLE_FILL_AREA(#488);
#486=FILL_AREA_STYLE('',(#489));
#487=FILL_AREA_STYLE('',(#490));
#488=FILL_AREA_STYLE('',(#491));
#489=FILL_AREA_STYLE_COLOUR('',#492);
#490=FILL_AREA_STYLE_COLOUR('',#493);
#491=FILL_AREA_STYLE_COLOUR('',#494);
#492=COLOUR_RGB('',1.,1.,1.);
#493=COLOUR_RGB('',1.,0.,1.);
#494=COLOUR_RGB('',0.980392156862745,0.980392156862745,0.980392156862745);
ENDSEC;
END-ISO-10303-21;
