ISO-10303-21;
HEADER;
/* Generated by software containing ST-Developer
 * from STEP Tools, Inc. (www.steptools.com) 
 */

FILE_DESCRIPTION(
/* description */ (''),
/* implementation_level */ '2;1');

FILE_NAME(
/* name */ '16262.100X_3D.stp',
/* time_stamp */ '2025-09-16T13:09:04+02:00',
/* author */ ('N.Hausmann'),
/* organization */ (''),
/* preprocessor_version */ 'ST-DEVELOPER v20',
/* originating_system */ 'AutoCAD Mechanical',
/* authorisation */ '');

FILE_SCHEMA (('AUTOMOTIVE_DESIGN { 1 0 10303 214 3 1 1 }'));
ENDSEC;

DATA;
#10=MECHANICAL_DESIGN_GEOMETRIC_PRESENTATION_REPRESENTATION('',(#21,#22),
#490);
#11=PRESENTATION_LAYER_ASSIGNMENT('0','0',(#23,#24));
#12=SHAPE_REPRESENTATION_RELATIONSHIP('SRR','None',#499,#13);
#13=ADVANCED_BREP_SHAPE_REPRESENTATION('',(#23,#24),#488);
#14=ITEM_DEFINED_TRANSFORMATION($,$,#266,#309);
#15=(
REPRESENTATION_RELATIONSHIP($,$,#500,#499)
REPRESENTATION_RELATIONSHIP_WITH_TRANSFORMATION(#14)
SHAPE_REPRESENTATION_RELATIONSHIP()
);
#16=CONTEXT_DEPENDENT_SHAPE_REPRESENTATION(#15,#498);
#17=NEXT_ASSEMBLY_USAGE_OCCURRENCE('18BF','18BF','18BF',#502,#503,
'18BF');
#18=CONICAL_SURFACE('',#298,64.2562035122375,1.47112767430373);
#19=CONICAL_SURFACE('',#301,63.5062035122375,0.0996686524911631);
#20=CONICAL_SURFACE('',#304,66.,0.0996686524911634);
#21=STYLED_ITEM('',(#514),#23);
#22=STYLED_ITEM('',(#514),#24);
#23=MANIFOLD_SOLID_BREP('21DF8',#263);
#24=MANIFOLD_SOLID_BREP('21ED9',#264);
#25=TOROIDAL_SURFACE('',#276,62.5,7.5);
#26=TOROIDAL_SURFACE('',#279,71.3899472612446,7.39025398669985);
#27=TOROIDAL_SURFACE('',#283,71.3899472612446,4.89025398669985);
#28=TOROIDAL_SURFACE('',#288,62.5,10.);
#29=FACE_BOUND('',#53,.T.);
#30=FACE_BOUND('',#62,.T.);
#31=FACE_BOUND('',#64,.T.);
#32=PLANE('',#271);
#33=PLANE('',#294);
#34=PLANE('',#295);
#35=FACE_OUTER_BOUND('',#51,.T.);
#36=FACE_OUTER_BOUND('',#52,.T.);
#37=FACE_OUTER_BOUND('',#54,.T.);
#38=FACE_OUTER_BOUND('',#55,.T.);
#39=FACE_OUTER_BOUND('',#56,.T.);
#40=FACE_OUTER_BOUND('',#57,.T.);
#41=FACE_OUTER_BOUND('',#58,.T.);
#42=FACE_OUTER_BOUND('',#59,.T.);
#43=FACE_OUTER_BOUND('',#60,.T.);
#44=FACE_OUTER_BOUND('',#61,.T.);
#45=FACE_OUTER_BOUND('',#63,.T.);
#46=FACE_OUTER_BOUND('',#65,.T.);
#47=FACE_OUTER_BOUND('',#66,.T.);
#48=FACE_OUTER_BOUND('',#67,.T.);
#49=FACE_OUTER_BOUND('',#68,.T.);
#50=FACE_OUTER_BOUND('',#69,.T.);
#51=EDGE_LOOP('',(#171,#172,#173,#174,#175));
#52=EDGE_LOOP('',(#176));
#53=EDGE_LOOP('',(#177));
#54=EDGE_LOOP('',(#178,#179,#180,#181,#182));
#55=EDGE_LOOP('',(#183,#184,#185,#186,#187));
#56=EDGE_LOOP('',(#188,#189,#190,#191,#192));
#57=EDGE_LOOP('',(#193,#194,#195,#196,#197));
#58=EDGE_LOOP('',(#198,#199,#200,#201,#202));
#59=EDGE_LOOP('',(#203,#204,#205,#206,#207));
#60=EDGE_LOOP('',(#208,#209,#210,#211,#212));
#61=EDGE_LOOP('',(#213));
#62=EDGE_LOOP('',(#214));
#63=EDGE_LOOP('',(#215));
#64=EDGE_LOOP('',(#216));
#65=EDGE_LOOP('',(#217,#218,#219,#220));
#66=EDGE_LOOP('',(#221,#222,#223,#224,#225));
#67=EDGE_LOOP('',(#226,#227,#228,#229,#230));
#68=EDGE_LOOP('',(#231,#232,#233,#234,#235));
#69=EDGE_LOOP('',(#236,#237,#238,#239,#240));
#70=LINE('',#415,#79);
#71=LINE('',#424,#80);
#72=LINE('',#450,#81);
#73=LINE('',#454,#82);
#74=LINE('',#466,#83);
#75=LINE('',#470,#84);
#76=LINE('',#476,#85);
#77=LINE('',#481,#86);
#78=LINE('',#483,#87);
#79=VECTOR('',#318,72.5);
#80=VECTOR('',#329,70.);
#81=VECTOR('',#364,66.5);
#82=VECTOR('',#369,64.);
#83=VECTOR('',#384,64.2562035122375);
#84=VECTOR('',#389,63.5062035122375);
#85=VECTOR('',#396,66.);
#86=VECTOR('',#403,64.);
#87=VECTOR('',#406,66.5);
#88=CIRCLE('',#268,72.5);
#89=CIRCLE('',#269,72.5);
#90=CIRCLE('',#270,72.5);
#91=CIRCLE('',#272,70.);
#92=CIRCLE('',#274,70.);
#93=CIRCLE('',#275,70.);
#94=CIRCLE('',#277,7.5);
#95=CIRCLE('',#278,66.977734531519);
#96=CIRCLE('',#280,64.);
#97=CIRCLE('',#281,7.39025398669985);
#98=CIRCLE('',#282,64.);
#99=CIRCLE('',#284,66.5);
#100=CIRCLE('',#285,66.5);
#101=CIRCLE('',#286,4.89025398669985);
#102=CIRCLE('',#287,68.470312708692);
#103=CIRCLE('',#289,10.);
#104=CIRCLE('',#291,66.5);
#105=CIRCLE('',#293,64.);
#106=CIRCLE('',#296,66.5);
#107=CIRCLE('',#297,64.);
#108=CIRCLE('',#299,65.5);
#109=CIRCLE('',#300,63.012407024475);
#110=CIRCLE('',#302,64.);
#111=CIRCLE('',#303,64.);
#112=CIRCLE('',#305,66.5);
#113=CIRCLE('',#306,66.5);
#114=VERTEX_POINT('',#412);
#115=VERTEX_POINT('',#414);
#116=VERTEX_POINT('',#416);
#117=VERTEX_POINT('',#420);
#118=VERTEX_POINT('',#423);
#119=VERTEX_POINT('',#425);
#120=VERTEX_POINT('',#429);
#121=VERTEX_POINT('',#433);
#122=VERTEX_POINT('',#434);
#123=VERTEX_POINT('',#439);
#124=VERTEX_POINT('',#440);
#125=VERTEX_POINT('',#443);
#126=VERTEX_POINT('',#449);
#127=VERTEX_POINT('',#453);
#128=VERTEX_POINT('',#458);
#129=VERTEX_POINT('',#460);
#130=VERTEX_POINT('',#463);
#131=VERTEX_POINT('',#465);
#132=VERTEX_POINT('',#469);
#133=VERTEX_POINT('',#471);
#134=VERTEX_POINT('',#475);
#135=VERTEX_POINT('',#477);
#136=EDGE_CURVE('',#114,#114,#88,.T.);
#137=EDGE_CURVE('',#114,#115,#70,.T.);
#138=EDGE_CURVE('',#115,#116,#89,.T.);
#139=EDGE_CURVE('',#116,#115,#90,.T.);
#140=EDGE_CURVE('',#117,#117,#91,.T.);
#141=EDGE_CURVE('',#117,#118,#71,.T.);
#142=EDGE_CURVE('',#119,#118,#92,.T.);
#143=EDGE_CURVE('',#118,#119,#93,.T.);
#144=EDGE_CURVE('',#119,#120,#94,.T.);
#145=EDGE_CURVE('',#120,#120,#95,.T.);
#146=EDGE_CURVE('',#121,#122,#96,.T.);
#147=EDGE_CURVE('',#121,#120,#97,.T.);
#148=EDGE_CURVE('',#122,#121,#98,.T.);
#149=EDGE_CURVE('',#123,#124,#99,.T.);
#150=EDGE_CURVE('',#124,#123,#100,.T.);
#151=EDGE_CURVE('',#123,#125,#101,.T.);
#152=EDGE_CURVE('',#125,#125,#102,.T.);
#153=EDGE_CURVE('',#116,#125,#103,.T.);
#154=EDGE_CURVE('',#124,#126,#72,.T.);
#155=EDGE_CURVE('',#126,#126,#104,.T.);
#156=EDGE_CURVE('',#122,#127,#73,.T.);
#157=EDGE_CURVE('',#127,#127,#105,.T.);
#158=EDGE_CURVE('',#128,#128,#106,.T.);
#159=EDGE_CURVE('',#129,#129,#107,.T.);
#160=EDGE_CURVE('',#130,#130,#108,.T.);
#161=EDGE_CURVE('',#130,#131,#74,.T.);
#162=EDGE_CURVE('',#131,#131,#109,.T.);
#163=EDGE_CURVE('',#131,#132,#75,.T.);
#164=EDGE_CURVE('',#133,#132,#110,.T.);
#165=EDGE_CURVE('',#132,#133,#111,.T.);
#166=EDGE_CURVE('',#130,#134,#76,.T.);
#167=EDGE_CURVE('',#134,#135,#112,.T.);
#168=EDGE_CURVE('',#135,#134,#113,.T.);
#169=EDGE_CURVE('',#129,#133,#77,.T.);
#170=EDGE_CURVE('',#128,#135,#78,.T.);
#171=ORIENTED_EDGE('',*,*,#136,.F.);
#172=ORIENTED_EDGE('',*,*,#137,.T.);
#173=ORIENTED_EDGE('',*,*,#138,.T.);
#174=ORIENTED_EDGE('',*,*,#139,.T.);
#175=ORIENTED_EDGE('',*,*,#137,.F.);
#176=ORIENTED_EDGE('',*,*,#136,.T.);
#177=ORIENTED_EDGE('',*,*,#140,.F.);
#178=ORIENTED_EDGE('',*,*,#140,.T.);
#179=ORIENTED_EDGE('',*,*,#141,.T.);
#180=ORIENTED_EDGE('',*,*,#142,.F.);
#181=ORIENTED_EDGE('',*,*,#143,.F.);
#182=ORIENTED_EDGE('',*,*,#141,.F.);
#183=ORIENTED_EDGE('',*,*,#142,.T.);
#184=ORIENTED_EDGE('',*,*,#143,.T.);
#185=ORIENTED_EDGE('',*,*,#144,.T.);
#186=ORIENTED_EDGE('',*,*,#145,.F.);
#187=ORIENTED_EDGE('',*,*,#144,.F.);
#188=ORIENTED_EDGE('',*,*,#146,.F.);
#189=ORIENTED_EDGE('',*,*,#147,.T.);
#190=ORIENTED_EDGE('',*,*,#145,.T.);
#191=ORIENTED_EDGE('',*,*,#147,.F.);
#192=ORIENTED_EDGE('',*,*,#148,.F.);
#193=ORIENTED_EDGE('',*,*,#149,.T.);
#194=ORIENTED_EDGE('',*,*,#150,.T.);
#195=ORIENTED_EDGE('',*,*,#151,.T.);
#196=ORIENTED_EDGE('',*,*,#152,.F.);
#197=ORIENTED_EDGE('',*,*,#151,.F.);
#198=ORIENTED_EDGE('',*,*,#139,.F.);
#199=ORIENTED_EDGE('',*,*,#153,.T.);
#200=ORIENTED_EDGE('',*,*,#152,.T.);
#201=ORIENTED_EDGE('',*,*,#153,.F.);
#202=ORIENTED_EDGE('',*,*,#138,.F.);
#203=ORIENTED_EDGE('',*,*,#149,.F.);
#204=ORIENTED_EDGE('',*,*,#150,.F.);
#205=ORIENTED_EDGE('',*,*,#154,.T.);
#206=ORIENTED_EDGE('',*,*,#155,.F.);
#207=ORIENTED_EDGE('',*,*,#154,.F.);
#208=ORIENTED_EDGE('',*,*,#146,.T.);
#209=ORIENTED_EDGE('',*,*,#156,.T.);
#210=ORIENTED_EDGE('',*,*,#157,.F.);
#211=ORIENTED_EDGE('',*,*,#156,.F.);
#212=ORIENTED_EDGE('',*,*,#148,.T.);
#213=ORIENTED_EDGE('',*,*,#155,.T.);
#214=ORIENTED_EDGE('',*,*,#157,.T.);
#215=ORIENTED_EDGE('',*,*,#158,.F.);
#216=ORIENTED_EDGE('',*,*,#159,.F.);
#217=ORIENTED_EDGE('',*,*,#160,.T.);
#218=ORIENTED_EDGE('',*,*,#161,.T.);
#219=ORIENTED_EDGE('',*,*,#162,.F.);
#220=ORIENTED_EDGE('',*,*,#161,.F.);
#221=ORIENTED_EDGE('',*,*,#162,.T.);
#222=ORIENTED_EDGE('',*,*,#163,.T.);
#223=ORIENTED_EDGE('',*,*,#164,.F.);
#224=ORIENTED_EDGE('',*,*,#165,.F.);
#225=ORIENTED_EDGE('',*,*,#163,.F.);
#226=ORIENTED_EDGE('',*,*,#160,.F.);
#227=ORIENTED_EDGE('',*,*,#166,.T.);
#228=ORIENTED_EDGE('',*,*,#167,.T.);
#229=ORIENTED_EDGE('',*,*,#168,.T.);
#230=ORIENTED_EDGE('',*,*,#166,.F.);
#231=ORIENTED_EDGE('',*,*,#159,.T.);
#232=ORIENTED_EDGE('',*,*,#169,.T.);
#233=ORIENTED_EDGE('',*,*,#164,.T.);
#234=ORIENTED_EDGE('',*,*,#165,.T.);
#235=ORIENTED_EDGE('',*,*,#169,.F.);
#236=ORIENTED_EDGE('',*,*,#158,.T.);
#237=ORIENTED_EDGE('',*,*,#170,.T.);
#238=ORIENTED_EDGE('',*,*,#167,.F.);
#239=ORIENTED_EDGE('',*,*,#168,.F.);
#240=ORIENTED_EDGE('',*,*,#170,.F.);
#241=CYLINDRICAL_SURFACE('',#267,72.5);
#242=CYLINDRICAL_SURFACE('',#273,70.);
#243=CYLINDRICAL_SURFACE('',#290,66.5);
#244=CYLINDRICAL_SURFACE('',#292,64.);
#245=CYLINDRICAL_SURFACE('',#307,64.);
#246=CYLINDRICAL_SURFACE('',#308,66.5);
#247=ADVANCED_FACE('',(#35),#241,.T.);
#248=ADVANCED_FACE('',(#36,#29),#32,.T.);
#249=ADVANCED_FACE('',(#37),#242,.F.);
#250=ADVANCED_FACE('',(#38),#25,.F.);
#251=ADVANCED_FACE('',(#39),#26,.T.);
#252=ADVANCED_FACE('',(#40),#27,.F.);
#253=ADVANCED_FACE('',(#41),#28,.T.);
#254=ADVANCED_FACE('',(#42),#243,.T.);
#255=ADVANCED_FACE('',(#43),#244,.F.);
#256=ADVANCED_FACE('',(#44,#30),#33,.F.);
#257=ADVANCED_FACE('',(#45,#31),#34,.T.);
#258=ADVANCED_FACE('',(#46),#18,.F.);
#259=ADVANCED_FACE('',(#47),#19,.F.);
#260=ADVANCED_FACE('',(#48),#20,.T.);
#261=ADVANCED_FACE('',(#49),#245,.F.);
#262=ADVANCED_FACE('',(#50),#246,.T.);
#263=CLOSED_SHELL('',(#247,#248,#249,#250,#251,#252,#253,#254,#255,#256));
#264=CLOSED_SHELL('',(#257,#258,#259,#260,#261,#262));
#265=AXIS2_PLACEMENT_3D('',#409,#310,#311);
#266=AXIS2_PLACEMENT_3D('',#410,#312,#313);
#267=AXIS2_PLACEMENT_3D('',#411,#314,#315);
#268=AXIS2_PLACEMENT_3D('',#413,#316,#317);
#269=AXIS2_PLACEMENT_3D('',#417,#319,#320);
#270=AXIS2_PLACEMENT_3D('',#418,#321,#322);
#271=AXIS2_PLACEMENT_3D('',#419,#323,#324);
#272=AXIS2_PLACEMENT_3D('',#421,#325,#326);
#273=AXIS2_PLACEMENT_3D('',#422,#327,#328);
#274=AXIS2_PLACEMENT_3D('',#426,#330,#331);
#275=AXIS2_PLACEMENT_3D('',#427,#332,#333);
#276=AXIS2_PLACEMENT_3D('',#428,#334,#335);
#277=AXIS2_PLACEMENT_3D('',#430,#336,#337);
#278=AXIS2_PLACEMENT_3D('',#431,#338,#339);
#279=AXIS2_PLACEMENT_3D('',#432,#340,#341);
#280=AXIS2_PLACEMENT_3D('',#435,#342,#343);
#281=AXIS2_PLACEMENT_3D('',#436,#344,#345);
#282=AXIS2_PLACEMENT_3D('',#437,#346,#347);
#283=AXIS2_PLACEMENT_3D('',#438,#348,#349);
#284=AXIS2_PLACEMENT_3D('',#441,#350,#351);
#285=AXIS2_PLACEMENT_3D('',#442,#352,#353);
#286=AXIS2_PLACEMENT_3D('',#444,#354,#355);
#287=AXIS2_PLACEMENT_3D('',#445,#356,#357);
#288=AXIS2_PLACEMENT_3D('',#446,#358,#359);
#289=AXIS2_PLACEMENT_3D('',#447,#360,#361);
#290=AXIS2_PLACEMENT_3D('',#448,#362,#363);
#291=AXIS2_PLACEMENT_3D('',#451,#365,#366);
#292=AXIS2_PLACEMENT_3D('',#452,#367,#368);
#293=AXIS2_PLACEMENT_3D('',#455,#370,#371);
#294=AXIS2_PLACEMENT_3D('',#456,#372,#373);
#295=AXIS2_PLACEMENT_3D('',#457,#374,#375);
#296=AXIS2_PLACEMENT_3D('',#459,#376,#377);
#297=AXIS2_PLACEMENT_3D('',#461,#378,#379);
#298=AXIS2_PLACEMENT_3D('',#462,#380,#381);
#299=AXIS2_PLACEMENT_3D('',#464,#382,#383);
#300=AXIS2_PLACEMENT_3D('',#467,#385,#386);
#301=AXIS2_PLACEMENT_3D('',#468,#387,#388);
#302=AXIS2_PLACEMENT_3D('',#472,#390,#391);
#303=AXIS2_PLACEMENT_3D('',#473,#392,#393);
#304=AXIS2_PLACEMENT_3D('',#474,#394,#395);
#305=AXIS2_PLACEMENT_3D('',#478,#397,#398);
#306=AXIS2_PLACEMENT_3D('',#479,#399,#400);
#307=AXIS2_PLACEMENT_3D('',#480,#401,#402);
#308=AXIS2_PLACEMENT_3D('',#482,#404,#405);
#309=AXIS2_PLACEMENT_3D('',#484,#407,#408);
#310=DIRECTION('axis',(0.,0.,1.));
#311=DIRECTION('refdir',(1.,0.,0.));
#312=DIRECTION('axis',(0.,0.,1.));
#313=DIRECTION('refdir',(1.,0.,0.));
#314=DIRECTION('center_axis',(0.,6.12323399573677E-17,1.));
#315=DIRECTION('ref_axis',(-1.,0.,0.));
#316=DIRECTION('center_axis',(0.,6.12323399573677E-17,1.));
#317=DIRECTION('ref_axis',(1.,0.,0.));
#318=DIRECTION('',(0.,-6.12323399573677E-17,-1.));
#319=DIRECTION('center_axis',(0.,6.12323399573677E-17,1.));
#320=DIRECTION('ref_axis',(1.,0.,0.));
#321=DIRECTION('center_axis',(0.,6.12323399573677E-17,1.));
#322=DIRECTION('ref_axis',(1.,0.,0.));
#323=DIRECTION('center_axis',(0.,6.12323399573677E-17,1.));
#324=DIRECTION('ref_axis',(0.,-1.,6.12323399573677E-17));
#325=DIRECTION('center_axis',(0.,6.12323399573677E-17,1.));
#326=DIRECTION('ref_axis',(1.,0.,0.));
#327=DIRECTION('center_axis',(0.,6.12323399573677E-17,1.));
#328=DIRECTION('ref_axis',(-1.,0.,0.));
#329=DIRECTION('',(0.,-6.12323399573677E-17,-1.));
#330=DIRECTION('center_axis',(0.,6.12323399573677E-17,1.));
#331=DIRECTION('ref_axis',(1.,0.,0.));
#332=DIRECTION('center_axis',(0.,6.12323399573677E-17,1.));
#333=DIRECTION('ref_axis',(1.,0.,0.));
#334=DIRECTION('center_axis',(0.,6.12323399573677E-17,1.));
#335=DIRECTION('ref_axis',(0.,-1.,0.));
#336=DIRECTION('center_axis',(-1.,-1.22464679914735E-16,7.49879891330929E-33));
#337=DIRECTION('ref_axis',(-1.22464679914735E-16,1.,-6.12323399573677E-17));
#338=DIRECTION('center_axis',(0.,6.12323399573677E-17,1.));
#339=DIRECTION('ref_axis',(1.,0.,0.));
#340=DIRECTION('center_axis',(0.,6.12323399573677E-17,1.));
#341=DIRECTION('ref_axis',(0.,-1.,0.));
#342=DIRECTION('center_axis',(0.,6.12323399573677E-17,1.));
#343=DIRECTION('ref_axis',(1.,0.,0.));
#344=DIRECTION('center_axis',(-1.,-1.22464679914735E-16,7.49879891330929E-33));
#345=DIRECTION('ref_axis',(-1.22464679914735E-16,1.,-6.12323399573677E-17));
#346=DIRECTION('center_axis',(0.,6.12323399573677E-17,1.));
#347=DIRECTION('ref_axis',(1.,0.,0.));
#348=DIRECTION('center_axis',(0.,6.12323399573677E-17,1.));
#349=DIRECTION('ref_axis',(0.,-1.,0.));
#350=DIRECTION('center_axis',(0.,6.12323399573677E-17,1.));
#351=DIRECTION('ref_axis',(1.,0.,0.));
#352=DIRECTION('center_axis',(0.,6.12323399573677E-17,1.));
#353=DIRECTION('ref_axis',(1.,0.,0.));
#354=DIRECTION('center_axis',(-1.,-1.22464679914735E-16,7.49879891330929E-33));
#355=DIRECTION('ref_axis',(-1.22464679914735E-16,1.,-6.12323399573677E-17));
#356=DIRECTION('center_axis',(0.,6.12323399573677E-17,1.));
#357=DIRECTION('ref_axis',(1.,0.,0.));
#358=DIRECTION('center_axis',(0.,6.12323399573677E-17,1.));
#359=DIRECTION('ref_axis',(0.,-1.,0.));
#360=DIRECTION('center_axis',(-1.,-1.22464679914735E-16,7.49879891330929E-33));
#361=DIRECTION('ref_axis',(-1.22464679914735E-16,1.,-6.12323399573677E-17));
#362=DIRECTION('center_axis',(0.,6.12323399573677E-17,1.));
#363=DIRECTION('ref_axis',(-1.,0.,0.));
#364=DIRECTION('',(0.,-6.12323399573677E-17,-1.));
#365=DIRECTION('center_axis',(0.,0.,-1.));
#366=DIRECTION('ref_axis',(-1.,0.,0.));
#367=DIRECTION('center_axis',(0.,6.12323399573677E-17,1.));
#368=DIRECTION('ref_axis',(-1.,0.,0.));
#369=DIRECTION('',(0.,-6.12323399573677E-17,-1.));
#370=DIRECTION('center_axis',(0.,0.,1.));
#371=DIRECTION('ref_axis',(-1.,0.,0.));
#372=DIRECTION('center_axis',(0.,0.,1.));
#373=DIRECTION('ref_axis',(1.,0.,0.));
#374=DIRECTION('center_axis',(0.,0.,1.));
#375=DIRECTION('ref_axis',(1.,0.,0.));
#376=DIRECTION('center_axis',(0.,0.,-1.));
#377=DIRECTION('ref_axis',(-1.,0.,0.));
#378=DIRECTION('center_axis',(0.,0.,1.));
#379=DIRECTION('ref_axis',(-1.,0.,0.));
#380=DIRECTION('center_axis',(0.,-6.12323399573677E-17,-1.));
#381=DIRECTION('ref_axis',(0.,-1.,6.12323399573677E-17));
#382=DIRECTION('center_axis',(0.,-6.12323399573677E-17,-1.));
#383=DIRECTION('ref_axis',(1.,0.,0.));
#384=DIRECTION('',(-1.21856911002324E-16,-0.995037190209989,0.0995037190210014));
#385=DIRECTION('center_axis',(0.,-6.12323399573677E-17,-1.));
#386=DIRECTION('ref_axis',(1.,0.,0.));
#387=DIRECTION('center_axis',(0.,6.12323399573677E-17,1.));
#388=DIRECTION('ref_axis',(0.,-1.,6.12323399573677E-17));
#389=DIRECTION('',(1.21856911002325E-17,0.099503719021,0.995037190209989));
#390=DIRECTION('center_axis',(0.,-6.12323399573677E-17,-1.));
#391=DIRECTION('ref_axis',(1.,0.,0.));
#392=DIRECTION('center_axis',(0.,-6.12323399573677E-17,-1.));
#393=DIRECTION('ref_axis',(1.,0.,0.));
#394=DIRECTION('center_axis',(0.,6.12323399573677E-17,1.));
#395=DIRECTION('ref_axis',(0.,-1.,6.12323399573677E-17));
#396=DIRECTION('',(1.21856911002326E-17,0.0995037190210004,0.995037190209989));
#397=DIRECTION('center_axis',(0.,-6.12323399573677E-17,-1.));
#398=DIRECTION('ref_axis',(1.,0.,0.));
#399=DIRECTION('center_axis',(0.,-6.12323399573677E-17,-1.));
#400=DIRECTION('ref_axis',(1.,0.,0.));
#401=DIRECTION('center_axis',(0.,6.12323399573677E-17,1.));
#402=DIRECTION('ref_axis',(-1.,0.,0.));
#403=DIRECTION('',(0.,-6.12323399573677E-17,-1.));
#404=DIRECTION('center_axis',(0.,6.12323399573677E-17,1.));
#405=DIRECTION('ref_axis',(-1.,0.,0.));
#406=DIRECTION('',(0.,-6.12323399573677E-17,-1.));
#407=DIRECTION('',(0.,0.,1.));
#408=DIRECTION('',(1.,0.,0.));
#409=CARTESIAN_POINT('',(0.,0.,0.));
#410=CARTESIAN_POINT('',(0.,0.,0.));
#411=CARTESIAN_POINT('Origin',(0.,1.28587913910472E-15,115.));
#412=CARTESIAN_POINT('',(72.5,1.04707301327099E-14,120.));
#413=CARTESIAN_POINT('Origin',(0.,1.59204083889156E-15,120.));
#414=CARTESIAN_POINT('',(72.5,9.85840673313619E-15,110.));
#415=CARTESIAN_POINT('',(72.5,1.0164568432923E-14,115.));
#416=CARTESIAN_POINT('',(-8.87868929381831E-15,72.5,110.));
#417=CARTESIAN_POINT('Origin',(0.,9.79717439317883E-16,110.));
#418=CARTESIAN_POINT('Origin',(0.,9.79717439317883E-16,110.));
#419=CARTESIAN_POINT('Origin',(-70.,1.59204083889156E-15,120.));
#420=CARTESIAN_POINT('',(70.,1.0164568432923E-14,120.));
#421=CARTESIAN_POINT('Origin',(0.,1.59204083889156E-15,120.));
#422=CARTESIAN_POINT('Origin',(0.,1.2858791391065E-15,115.000000000029));
#423=CARTESIAN_POINT('',(70.,9.55224503335292E-15,110.000000000058));
#424=CARTESIAN_POINT('',(70.,9.85840673313798E-15,115.000000000029));
#425=CARTESIAN_POINT('',(-8.57252759403147E-15,70.,110.000000000058));
#426=CARTESIAN_POINT('Origin',(0.,9.79717439321447E-16,110.000000000058));
#427=CARTESIAN_POINT('Origin',(0.,9.79717439321447E-16,110.000000000058));
#428=CARTESIAN_POINT('Origin',(0.,9.79717439317883E-16,110.));
#429=CARTESIAN_POINT('',(-8.20240682081659E-15,66.977734531519,103.983365270748));
#430=CARTESIAN_POINT('Origin',(-7.65404249467096E-15,62.5,110.));
#431=CARTESIAN_POINT('Origin',(0.,6.11304816177015E-16,103.983365270748));
#432=CARTESIAN_POINT('Origin',(0.,2.48283101921368E-16,98.0547707648317));
#433=CARTESIAN_POINT('',(-7.83773951454306E-15,64.,97.9874397618405));
#434=CARTESIAN_POINT('',(64.,8.0818997815996E-15,97.9874397618405));
#435=CARTESIAN_POINT('Origin',(0.,2.44160267056543E-16,97.9874397618405));
#436=CARTESIAN_POINT('Origin',(-8.74274704047816E-15,71.3899472612446,98.0547707648317));
#437=CARTESIAN_POINT('Origin',(0.,2.44160267056543E-16,97.9874397618405));
#438=CARTESIAN_POINT('Origin',(0.,2.48283101921368E-16,98.0547707648317));
#439=CARTESIAN_POINT('',(-8.1439012143299E-15,66.5,98.));
#440=CARTESIAN_POINT('',(66.5,8.38883057415937E-15,98.));
#441=CARTESIAN_POINT('Origin',(0.,2.44929359829471E-16,98.));
#442=CARTESIAN_POINT('Origin',(0.,2.44929359829471E-16,98.));
#443=CARTESIAN_POINT('',(-8.3851949295318E-15,68.470312708692,101.977820360997));
#444=CARTESIAN_POINT('Origin',(-8.74274704047816E-15,71.3899472612446,98.0547707648317));
#445=CARTESIAN_POINT('Origin',(0.,4.88500608463392E-16,101.977820360997));
#446=CARTESIAN_POINT('Origin',(0.,9.79717439317883E-16,110.));
#447=CARTESIAN_POINT('Origin',(-7.65404249467096E-15,62.5,110.));
#448=CARTESIAN_POINT('Origin',(0.,1.22464679914735E-16,96.));
#449=CARTESIAN_POINT('',(66.5,-8.1439012143299E-15,94.));
#450=CARTESIAN_POINT('',(66.5,8.26636589424463E-15,96.));
#451=CARTESIAN_POINT('Origin',(0.,0.,94.));
#452=CARTESIAN_POINT('Origin',(0.,1.22080133528271E-16,95.9937198809203));
#453=CARTESIAN_POINT('',(64.,7.83773951454306E-15,94.));
#454=CARTESIAN_POINT('',(64.,7.95981964807133E-15,95.9937198809203));
#455=CARTESIAN_POINT('Origin',(0.,0.,94.));
#456=CARTESIAN_POINT('Origin',(0.,0.,94.));
#457=CARTESIAN_POINT('Origin',(0.,0.,94.));
#458=CARTESIAN_POINT('',(66.5,-8.1439012143299E-15,94.));
#459=CARTESIAN_POINT('Origin',(0.,0.,94.));
#460=CARTESIAN_POINT('',(64.,7.83773951454306E-15,94.));
#461=CARTESIAN_POINT('Origin',(0.,0.,94.));
#462=CARTESIAN_POINT('Origin',(0.,-5.74822389905491E-15,0.124379648776255));
#463=CARTESIAN_POINT('',(8.02143653441516E-15,65.5,0.));
#464=CARTESIAN_POINT('Origin',(0.,-5.75583995599256E-15,0.));
#465=CARTESIAN_POINT('',(7.71679425690935E-15,63.012407024475,0.24875929755251));
#466=CARTESIAN_POINT('',(7.86911539566226E-15,64.2562035122375,0.124379648776255));
#467=CARTESIAN_POINT('Origin',(0.,-5.74060784211727E-15,0.248759297552496));
#468=CARTESIAN_POINT('Origin',(0.,-5.438244698033E-15,5.18672417517736));
#469=CARTESIAN_POINT('',(7.83773951454306E-15,64.,10.1246890528022));
#470=CARTESIAN_POINT('',(7.77726688572621E-15,63.5062035122375,5.18672417517736));
#471=CARTESIAN_POINT('',(64.,2.70185796059433E-15,10.1246890528022));
#472=CARTESIAN_POINT('Origin',(0.,-5.13588155394873E-15,10.1246890528022));
#473=CARTESIAN_POINT('Origin',(0.,-5.13588155394873E-15,10.1246890528022));
#474=CARTESIAN_POINT('Origin',(0.,-5.44967825620572E-15,5.));
#475=CARTESIAN_POINT('',(8.1439012143299E-15,66.5,10.));
#476=CARTESIAN_POINT('',(8.08266887437253E-15,66.,5.));
#477=CARTESIAN_POINT('',(66.5,3.00038465791102E-15,10.));
#478=CARTESIAN_POINT('Origin',(0.,-5.14351655641888E-15,10.));
#479=CARTESIAN_POINT('Origin',(0.,-5.14351655641888E-15,10.));
#480=CARTESIAN_POINT('Origin',(0.,1.22080133528271E-16,95.9937198809203));
#481=CARTESIAN_POINT('',(64.,7.95981964807133E-15,95.9937198809203));
#482=CARTESIAN_POINT('Origin',(0.,1.22464679914735E-16,96.));
#483=CARTESIAN_POINT('',(66.5,8.26636589424463E-15,96.));
#484=CARTESIAN_POINT('',(0.,0.,0.));
#485=UNCERTAINTY_MEASURE_WITH_UNIT(LENGTH_MEASURE(0.001),#491,
'DISTANCE_ACCURACY_VALUE',
'Maximum model space distance between geometric entities at asserted c
onnectivities');
#486=UNCERTAINTY_MEASURE_WITH_UNIT(LENGTH_MEASURE(0.001),#491,
'DISTANCE_ACCURACY_VALUE',
'Maximum model space distance between geometric entities at asserted c
onnectivities');
#487=UNCERTAINTY_MEASURE_WITH_UNIT(LENGTH_MEASURE(0.001),#491,
'DISTANCE_ACCURACY_VALUE',
'Maximum model space distance between geometric entities at asserted c
onnectivities');
#488=(
GEOMETRIC_REPRESENTATION_CONTEXT(3)
GLOBAL_UNCERTAINTY_ASSIGNED_CONTEXT((#485))
GLOBAL_UNIT_ASSIGNED_CONTEXT((#491,#492,#493))
REPRESENTATION_CONTEXT('','3D')
);
#489=(
GEOMETRIC_REPRESENTATION_CONTEXT(3)
GLOBAL_UNCERTAINTY_ASSIGNED_CONTEXT((#486))
GLOBAL_UNIT_ASSIGNED_CONTEXT((#491,#492,#493))
REPRESENTATION_CONTEXT('','3D')
);
#490=(
GEOMETRIC_REPRESENTATION_CONTEXT(3)
GLOBAL_UNCERTAINTY_ASSIGNED_CONTEXT((#487))
GLOBAL_UNIT_ASSIGNED_CONTEXT((#491,#492,#493))
REPRESENTATION_CONTEXT('','3D')
);
#491=(
LENGTH_UNIT()
NAMED_UNIT(*)
SI_UNIT(.CENTI.,.METRE.)
);
#492=(
NAMED_UNIT(*)
PLANE_ANGLE_UNIT()
SI_UNIT($,.RADIAN.)
);
#493=(
NAMED_UNIT(*)
SI_UNIT($,.STERADIAN.)
SOLID_ANGLE_UNIT()
);
#494=SHAPE_DEFINITION_REPRESENTATION(#496,#499);
#495=SHAPE_DEFINITION_REPRESENTATION(#497,#500);
#496=PRODUCT_DEFINITION_SHAPE('',$,#502);
#497=PRODUCT_DEFINITION_SHAPE('',$,#503);
#498=PRODUCT_DEFINITION_SHAPE($,$,#17);
#499=SHAPE_REPRESENTATION('',(#265,#309),#488);
#500=SHAPE_REPRESENTATION('',(#266),#489);
#501=PRODUCT_DEFINITION_CONTEXT('part definition',#509,'design');
#502=PRODUCT_DEFINITION('Product','Product',#504,#501);
#503=PRODUCT_DEFINITION('*S0','*S0',#505,#501);
#504=PRODUCT_DEFINITION_FORMATION('',$,#511);
#505=PRODUCT_DEFINITION_FORMATION('',$,#512);
#506=PRODUCT_RELATED_PRODUCT_CATEGORY('Product','Product',(#511));
#507=PRODUCT_RELATED_PRODUCT_CATEGORY('*S0','*S0',(#512));
#508=APPLICATION_PROTOCOL_DEFINITION('international standard',
'automotive_design',2009,#509);
#509=APPLICATION_CONTEXT(
'Core Data for Automotive Mechanical Design Process');
#510=PRODUCT_CONTEXT('part definition',#509,'mechanical');
#511=PRODUCT('Product','Product',$,(#510));
#512=PRODUCT('*S0','*S0',$,(#510));
#513=PRESENTATION_STYLE_ASSIGNMENT((#515));
#514=PRESENTATION_STYLE_ASSIGNMENT((#516));
#515=SURFACE_STYLE_USAGE(.BOTH.,#517);
#516=SURFACE_STYLE_USAGE(.BOTH.,#518);
#517=SURFACE_SIDE_STYLE('',(#519));
#518=SURFACE_SIDE_STYLE('',(#520));
#519=SURFACE_STYLE_FILL_AREA(#521);
#520=SURFACE_STYLE_FILL_AREA(#522);
#521=FILL_AREA_STYLE('',(#523));
#522=FILL_AREA_STYLE('',(#524));
#523=FILL_AREA_STYLE_COLOUR('',#525);
#524=FILL_AREA_STYLE_COLOUR('',#526);
#525=COLOUR_RGB('',1.,1.,1.);
#526=COLOUR_RGB('',0.501960784313725,0.313725490196078,0.250980392156863);
ENDSEC;
END-ISO-10303-21;
