ISO-10303-21;
HEADER;
/* Generated by software containing ST-Developer
 * from STEP Tools, Inc. (www.steptools.com) 
 */

FILE_DESCRIPTION(
/* description */ (''),
/* implementation_level */ '2;1');

FILE_NAME(
/* name */ '06007.HG0O_3D.stp',
/* time_stamp */ '2025-09-08T11:43:20+02:00',
/* author */ ('N.Hausmann'),
/* organization */ (''),
/* preprocessor_version */ 'ST-DEVELOPER v20',
/* originating_system */ 'AutoCAD Mechanical',
/* authorisation */ '');

FILE_SCHEMA (('AUTOMOTIVE_DESIGN { 1 0 10303 214 3 1 1 }'));
ENDSEC;

DATA;
#10=MECHANICAL_DESIGN_GEOMETRIC_PRESENTATION_REPRESENTATION('',(#18,#19),
#539);
#11=PRESENTATION_LAYER_ASSIGNMENT('4','Material (Verzinkt)',(#20,#21));
#12=SHAPE_REPRESENTATION_RELATIONSHIP('SRR','None',#548,#13);
#13=ADVANCED_BREP_SHAPE_REPRESENTATION('',(#20,#21),#537);
#14=ITEM_DEFINED_TRANSFORMATION($,$,#294,#341);
#15=(
REPRESENTATION_RELATIONSHIP($,$,#549,#548)
REPRESENTATION_RELATIONSHIP_WITH_TRANSFORMATION(#14)
SHAPE_REPRESENTATION_RELATIONSHIP()
);
#16=CONTEXT_DEPENDENT_SHAPE_REPRESENTATION(#15,#547);
#17=NEXT_ASSEMBLY_USAGE_OCCURRENCE('18BF','18BF','18BF',#551,#552,
'18BF');
#18=STYLED_ITEM('',(#562),#20);
#19=STYLED_ITEM('',(#562),#21);
#20=MANIFOLD_SOLID_BREP('23053',#291);
#21=MANIFOLD_SOLID_BREP('23056',#292);
#22=FACE_BOUND('',#86,.T.);
#23=FACE_BOUND('',#88,.T.);
#24=FACE_BOUND('',#90,.T.);
#25=FACE_BOUND('',#93,.T.);
#26=FACE_BOUND('',#101,.T.);
#27=PLANE('',#311);
#28=PLANE('',#312);
#29=PLANE('',#313);
#30=PLANE('',#318);
#31=PLANE('',#339);
#32=CONICAL_SURFACE('',#303,136.5,0.422853926132941);
#33=CONICAL_SURFACE('',#309,133.58185118344,0.422853926132941);
#34=CONICAL_SURFACE('',#316,120.448274346794,0.495133263468404);
#35=CONICAL_SURFACE('',#320,123.,0.495133263468404);
#36=CONICAL_SURFACE('',#334,109.068095446808,0.0872664625997187);
#37=CONICAL_SURFACE('',#336,106.16255668237,0.0872664625997237);
#38=LINE('',#465,#48);
#39=LINE('',#469,#49);
#40=LINE('',#476,#50);
#41=LINE('',#480,#51);
#42=LINE('',#491,#52);
#43=LINE('',#500,#53);
#44=LINE('',#519,#54);
#45=LINE('',#523,#55);
#46=LINE('',#528,#56);
#47=LINE('',#532,#57);
#48=VECTOR('',#362,136.5);
#49=VECTOR('',#367,136.5);
#50=VECTOR('',#374,136.5);
#51=VECTOR('',#379,136.5);
#52=VECTOR('',#394,123.);
#53=VECTOR('',#405,123.);
#54=VECTOR('',#430,109.5);
#55=VECTOR('',#435,109.068095446808);
#56=VECTOR('',#440,106.16255668237);
#57=VECTOR('',#447,106.6);
#58=CYLINDRICAL_SURFACE('',#301,136.5);
#59=CYLINDRICAL_SURFACE('',#305,133.3);
#60=CYLINDRICAL_SURFACE('',#333,109.5);
#61=CYLINDRICAL_SURFACE('',#340,106.6);
#62=FACE_OUTER_BOUND('',#80,.T.);
#63=FACE_OUTER_BOUND('',#81,.T.);
#64=FACE_OUTER_BOUND('',#82,.T.);
#65=FACE_OUTER_BOUND('',#83,.T.);
#66=FACE_OUTER_BOUND('',#84,.T.);
#67=FACE_OUTER_BOUND('',#85,.T.);
#68=FACE_OUTER_BOUND('',#87,.T.);
#69=FACE_OUTER_BOUND('',#89,.T.);
#70=FACE_OUTER_BOUND('',#91,.T.);
#71=FACE_OUTER_BOUND('',#92,.T.);
#72=FACE_OUTER_BOUND('',#94,.T.);
#73=FACE_OUTER_BOUND('',#95,.T.);
#74=FACE_OUTER_BOUND('',#96,.T.);
#75=FACE_OUTER_BOUND('',#97,.T.);
#76=FACE_OUTER_BOUND('',#98,.T.);
#77=FACE_OUTER_BOUND('',#99,.T.);
#78=FACE_OUTER_BOUND('',#100,.T.);
#79=FACE_OUTER_BOUND('',#102,.T.);
#80=EDGE_LOOP('',(#194,#195,#196,#197,#198,#199));
#81=EDGE_LOOP('',(#200,#201,#202,#203,#204));
#82=EDGE_LOOP('',(#205,#206,#207,#208,#209));
#83=EDGE_LOOP('',(#210,#211,#212,#213,#214));
#84=EDGE_LOOP('',(#215,#216,#217,#218,#219));
#85=EDGE_LOOP('',(#220));
#86=EDGE_LOOP('',(#221));
#87=EDGE_LOOP('',(#222));
#88=EDGE_LOOP('',(#223));
#89=EDGE_LOOP('',(#224));
#90=EDGE_LOOP('',(#225));
#91=EDGE_LOOP('',(#226,#227,#228,#229));
#92=EDGE_LOOP('',(#230));
#93=EDGE_LOOP('',(#231));
#94=EDGE_LOOP('',(#232,#233,#234,#235,#236));
#95=EDGE_LOOP('',(#237,#238,#239,#240,#241,#242));
#96=EDGE_LOOP('',(#243,#244,#245,#246,#247,#248));
#97=EDGE_LOOP('',(#249,#250,#251,#252,#253,#254));
#98=EDGE_LOOP('',(#255,#256,#257,#258,#259));
#99=EDGE_LOOP('',(#260,#261,#262,#263));
#100=EDGE_LOOP('',(#264));
#101=EDGE_LOOP('',(#265));
#102=EDGE_LOOP('',(#266,#267,#268,#269));
#103=CIRCLE('',#296,135.346171717794);
#104=CIRCLE('',#297,135.346171717794);
#105=CIRCLE('',#298,13.1);
#106=CIRCLE('',#299,136.5);
#107=CIRCLE('',#300,136.5);
#108=CIRCLE('',#302,136.5);
#109=CIRCLE('',#304,123.);
#110=CIRCLE('',#306,133.3);
#111=CIRCLE('',#307,133.3);
#112=CIRCLE('',#308,133.3);
#113=CIRCLE('',#310,119.490926048086);
#114=CIRCLE('',#314,123.);
#115=CIRCLE('',#315,119.704191146319);
#116=CIRCLE('',#317,106.204191146319);
#117=CIRCLE('',#319,106.6);
#118=CIRCLE('',#321,111.073239290691);
#119=CIRCLE('',#322,111.073239290691);
#120=CIRCLE('',#324,109.5);
#121=CIRCLE('',#325,13.1);
#122=CIRCLE('',#326,109.5);
#123=CIRCLE('',#328,109.450150545002);
#124=CIRCLE('',#329,109.450150545002);
#125=CIRCLE('',#330,13.1);
#126=CIRCLE('',#331,109.5);
#127=CIRCLE('',#332,109.5);
#128=CIRCLE('',#335,108.636190893617);
#129=CIRCLE('',#337,105.725113364741);
#130=CIRCLE('',#338,106.6);
#131=VERTEX_POINT('',#453);
#132=VERTEX_POINT('',#454);
#133=VERTEX_POINT('',#457);
#134=VERTEX_POINT('',#459);
#135=VERTEX_POINT('',#463);
#136=VERTEX_POINT('',#467);
#137=VERTEX_POINT('',#471);
#138=VERTEX_POINT('',#472);
#139=VERTEX_POINT('',#475);
#140=VERTEX_POINT('',#479);
#141=VERTEX_POINT('',#485);
#142=VERTEX_POINT('',#487);
#143=VERTEX_POINT('',#490);
#144=VERTEX_POINT('',#494);
#145=VERTEX_POINT('',#497);
#146=VERTEX_POINT('',#498);
#147=VERTEX_POINT('',#503);
#148=VERTEX_POINT('',#504);
#149=VERTEX_POINT('',#509);
#150=VERTEX_POINT('',#510);
#151=VERTEX_POINT('',#513);
#152=VERTEX_POINT('',#515);
#153=VERTEX_POINT('',#521);
#154=VERTEX_POINT('',#525);
#155=VERTEX_POINT('',#527);
#156=EDGE_CURVE('',#131,#132,#103,.T.);
#157=EDGE_CURVE('',#132,#131,#104,.T.);
#158=EDGE_CURVE('',#131,#133,#105,.T.);
#159=EDGE_CURVE('',#133,#134,#106,.T.);
#160=EDGE_CURVE('',#134,#133,#107,.T.);
#161=EDGE_CURVE('',#135,#135,#108,.T.);
#162=EDGE_CURVE('',#135,#134,#38,.T.);
#163=EDGE_CURVE('',#136,#136,#109,.T.);
#164=EDGE_CURVE('',#136,#132,#39,.T.);
#165=EDGE_CURVE('',#137,#138,#110,.F.);
#166=EDGE_CURVE('',#138,#137,#111,.F.);
#167=EDGE_CURVE('',#137,#139,#40,.T.);
#168=EDGE_CURVE('',#139,#139,#112,.T.);
#169=EDGE_CURVE('',#138,#140,#41,.T.);
#170=EDGE_CURVE('',#140,#140,#113,.T.);
#171=EDGE_CURVE('',#141,#141,#114,.T.);
#172=EDGE_CURVE('',#142,#142,#115,.T.);
#173=EDGE_CURVE('',#142,#143,#42,.T.);
#174=EDGE_CURVE('',#143,#143,#116,.T.);
#175=EDGE_CURVE('',#144,#144,#117,.T.);
#176=EDGE_CURVE('',#145,#146,#118,.T.);
#177=EDGE_CURVE('',#145,#141,#43,.T.);
#178=EDGE_CURVE('',#146,#145,#119,.T.);
#179=EDGE_CURVE('',#147,#148,#120,.T.);
#180=EDGE_CURVE('',#148,#146,#121,.T.);
#181=EDGE_CURVE('',#148,#147,#122,.T.);
#182=EDGE_CURVE('',#149,#150,#123,.T.);
#183=EDGE_CURVE('',#150,#149,#124,.T.);
#184=EDGE_CURVE('',#149,#151,#125,.T.);
#185=EDGE_CURVE('',#151,#152,#126,.T.);
#186=EDGE_CURVE('',#152,#151,#127,.T.);
#187=EDGE_CURVE('',#152,#147,#44,.T.);
#188=EDGE_CURVE('',#153,#153,#128,.T.);
#189=EDGE_CURVE('',#153,#150,#45,.T.);
#190=EDGE_CURVE('',#154,#154,#129,.T.);
#191=EDGE_CURVE('',#154,#155,#46,.T.);
#192=EDGE_CURVE('',#155,#155,#130,.T.);
#193=EDGE_CURVE('',#155,#144,#47,.T.);
#194=ORIENTED_EDGE('',*,*,#156,.T.);
#195=ORIENTED_EDGE('',*,*,#157,.T.);
#196=ORIENTED_EDGE('',*,*,#158,.T.);
#197=ORIENTED_EDGE('',*,*,#159,.T.);
#198=ORIENTED_EDGE('',*,*,#160,.T.);
#199=ORIENTED_EDGE('',*,*,#158,.F.);
#200=ORIENTED_EDGE('',*,*,#161,.F.);
#201=ORIENTED_EDGE('',*,*,#162,.T.);
#202=ORIENTED_EDGE('',*,*,#159,.F.);
#203=ORIENTED_EDGE('',*,*,#160,.F.);
#204=ORIENTED_EDGE('',*,*,#162,.F.);
#205=ORIENTED_EDGE('',*,*,#163,.T.);
#206=ORIENTED_EDGE('',*,*,#164,.T.);
#207=ORIENTED_EDGE('',*,*,#156,.F.);
#208=ORIENTED_EDGE('',*,*,#157,.F.);
#209=ORIENTED_EDGE('',*,*,#164,.F.);
#210=ORIENTED_EDGE('',*,*,#165,.T.);
#211=ORIENTED_EDGE('',*,*,#166,.T.);
#212=ORIENTED_EDGE('',*,*,#167,.T.);
#213=ORIENTED_EDGE('',*,*,#168,.F.);
#214=ORIENTED_EDGE('',*,*,#167,.F.);
#215=ORIENTED_EDGE('',*,*,#165,.F.);
#216=ORIENTED_EDGE('',*,*,#166,.F.);
#217=ORIENTED_EDGE('',*,*,#169,.T.);
#218=ORIENTED_EDGE('',*,*,#170,.F.);
#219=ORIENTED_EDGE('',*,*,#169,.F.);
#220=ORIENTED_EDGE('',*,*,#161,.T.);
#221=ORIENTED_EDGE('',*,*,#168,.T.);
#222=ORIENTED_EDGE('',*,*,#163,.F.);
#223=ORIENTED_EDGE('',*,*,#170,.T.);
#224=ORIENTED_EDGE('',*,*,#171,.F.);
#225=ORIENTED_EDGE('',*,*,#172,.T.);
#226=ORIENTED_EDGE('',*,*,#172,.F.);
#227=ORIENTED_EDGE('',*,*,#173,.T.);
#228=ORIENTED_EDGE('',*,*,#174,.F.);
#229=ORIENTED_EDGE('',*,*,#173,.F.);
#230=ORIENTED_EDGE('',*,*,#175,.T.);
#231=ORIENTED_EDGE('',*,*,#174,.T.);
#232=ORIENTED_EDGE('',*,*,#176,.F.);
#233=ORIENTED_EDGE('',*,*,#177,.T.);
#234=ORIENTED_EDGE('',*,*,#171,.T.);
#235=ORIENTED_EDGE('',*,*,#177,.F.);
#236=ORIENTED_EDGE('',*,*,#178,.F.);
#237=ORIENTED_EDGE('',*,*,#179,.T.);
#238=ORIENTED_EDGE('',*,*,#180,.T.);
#239=ORIENTED_EDGE('',*,*,#178,.T.);
#240=ORIENTED_EDGE('',*,*,#176,.T.);
#241=ORIENTED_EDGE('',*,*,#180,.F.);
#242=ORIENTED_EDGE('',*,*,#181,.T.);
#243=ORIENTED_EDGE('',*,*,#182,.T.);
#244=ORIENTED_EDGE('',*,*,#183,.T.);
#245=ORIENTED_EDGE('',*,*,#184,.T.);
#246=ORIENTED_EDGE('',*,*,#185,.T.);
#247=ORIENTED_EDGE('',*,*,#186,.T.);
#248=ORIENTED_EDGE('',*,*,#184,.F.);
#249=ORIENTED_EDGE('',*,*,#186,.F.);
#250=ORIENTED_EDGE('',*,*,#187,.T.);
#251=ORIENTED_EDGE('',*,*,#181,.F.);
#252=ORIENTED_EDGE('',*,*,#179,.F.);
#253=ORIENTED_EDGE('',*,*,#187,.F.);
#254=ORIENTED_EDGE('',*,*,#185,.F.);
#255=ORIENTED_EDGE('',*,*,#188,.F.);
#256=ORIENTED_EDGE('',*,*,#189,.T.);
#257=ORIENTED_EDGE('',*,*,#182,.F.);
#258=ORIENTED_EDGE('',*,*,#183,.F.);
#259=ORIENTED_EDGE('',*,*,#189,.F.);
#260=ORIENTED_EDGE('',*,*,#190,.T.);
#261=ORIENTED_EDGE('',*,*,#191,.T.);
#262=ORIENTED_EDGE('',*,*,#192,.F.);
#263=ORIENTED_EDGE('',*,*,#191,.F.);
#264=ORIENTED_EDGE('',*,*,#188,.T.);
#265=ORIENTED_EDGE('',*,*,#190,.F.);
#266=ORIENTED_EDGE('',*,*,#192,.T.);
#267=ORIENTED_EDGE('',*,*,#193,.T.);
#268=ORIENTED_EDGE('',*,*,#175,.F.);
#269=ORIENTED_EDGE('',*,*,#193,.F.);
#270=TOROIDAL_SURFACE('',#295,123.4,13.1);
#271=TOROIDAL_SURFACE('',#323,122.6,13.1);
#272=TOROIDAL_SURFACE('',#327,96.3999999999999,13.1);
#273=ADVANCED_FACE('',(#62),#270,.T.);
#274=ADVANCED_FACE('',(#63),#58,.T.);
#275=ADVANCED_FACE('',(#64),#32,.T.);
#276=ADVANCED_FACE('',(#65),#59,.F.);
#277=ADVANCED_FACE('',(#66),#33,.F.);
#278=ADVANCED_FACE('',(#67,#22),#27,.T.);
#279=ADVANCED_FACE('',(#68,#23),#28,.F.);
#280=ADVANCED_FACE('',(#69,#24),#29,.F.);
#281=ADVANCED_FACE('',(#70),#34,.F.);
#282=ADVANCED_FACE('',(#71,#25),#30,.F.);
#283=ADVANCED_FACE('',(#72),#35,.T.);
#284=ADVANCED_FACE('',(#73),#271,.F.);
#285=ADVANCED_FACE('',(#74),#272,.T.);
#286=ADVANCED_FACE('',(#75),#60,.T.);
#287=ADVANCED_FACE('',(#76),#36,.T.);
#288=ADVANCED_FACE('',(#77),#37,.F.);
#289=ADVANCED_FACE('',(#78,#26),#31,.T.);
#290=ADVANCED_FACE('',(#79),#61,.F.);
#291=CLOSED_SHELL('',(#273,#274,#275,#276,#277,#278,#279));
#292=CLOSED_SHELL('',(#280,#281,#282,#283,#284,#285,#286,#287,#288,#289,
#290));
#293=AXIS2_PLACEMENT_3D('',#450,#342,#343);
#294=AXIS2_PLACEMENT_3D('',#451,#344,#345);
#295=AXIS2_PLACEMENT_3D('',#452,#346,#347);
#296=AXIS2_PLACEMENT_3D('',#455,#348,#349);
#297=AXIS2_PLACEMENT_3D('',#456,#350,#351);
#298=AXIS2_PLACEMENT_3D('',#458,#352,#353);
#299=AXIS2_PLACEMENT_3D('',#460,#354,#355);
#300=AXIS2_PLACEMENT_3D('',#461,#356,#357);
#301=AXIS2_PLACEMENT_3D('',#462,#358,#359);
#302=AXIS2_PLACEMENT_3D('',#464,#360,#361);
#303=AXIS2_PLACEMENT_3D('',#466,#363,#364);
#304=AXIS2_PLACEMENT_3D('',#468,#365,#366);
#305=AXIS2_PLACEMENT_3D('',#470,#368,#369);
#306=AXIS2_PLACEMENT_3D('',#473,#370,#371);
#307=AXIS2_PLACEMENT_3D('',#474,#372,#373);
#308=AXIS2_PLACEMENT_3D('',#477,#375,#376);
#309=AXIS2_PLACEMENT_3D('',#478,#377,#378);
#310=AXIS2_PLACEMENT_3D('',#481,#380,#381);
#311=AXIS2_PLACEMENT_3D('',#482,#382,#383);
#312=AXIS2_PLACEMENT_3D('',#483,#384,#385);
#313=AXIS2_PLACEMENT_3D('',#484,#386,#387);
#314=AXIS2_PLACEMENT_3D('',#486,#388,#389);
#315=AXIS2_PLACEMENT_3D('',#488,#390,#391);
#316=AXIS2_PLACEMENT_3D('',#489,#392,#393);
#317=AXIS2_PLACEMENT_3D('',#492,#395,#396);
#318=AXIS2_PLACEMENT_3D('',#493,#397,#398);
#319=AXIS2_PLACEMENT_3D('',#495,#399,#400);
#320=AXIS2_PLACEMENT_3D('',#496,#401,#402);
#321=AXIS2_PLACEMENT_3D('',#499,#403,#404);
#322=AXIS2_PLACEMENT_3D('',#501,#406,#407);
#323=AXIS2_PLACEMENT_3D('',#502,#408,#409);
#324=AXIS2_PLACEMENT_3D('',#505,#410,#411);
#325=AXIS2_PLACEMENT_3D('',#506,#412,#413);
#326=AXIS2_PLACEMENT_3D('',#507,#414,#415);
#327=AXIS2_PLACEMENT_3D('',#508,#416,#417);
#328=AXIS2_PLACEMENT_3D('',#511,#418,#419);
#329=AXIS2_PLACEMENT_3D('',#512,#420,#421);
#330=AXIS2_PLACEMENT_3D('',#514,#422,#423);
#331=AXIS2_PLACEMENT_3D('',#516,#424,#425);
#332=AXIS2_PLACEMENT_3D('',#517,#426,#427);
#333=AXIS2_PLACEMENT_3D('',#518,#428,#429);
#334=AXIS2_PLACEMENT_3D('',#520,#431,#432);
#335=AXIS2_PLACEMENT_3D('',#522,#433,#434);
#336=AXIS2_PLACEMENT_3D('',#524,#436,#437);
#337=AXIS2_PLACEMENT_3D('',#526,#438,#439);
#338=AXIS2_PLACEMENT_3D('',#529,#441,#442);
#339=AXIS2_PLACEMENT_3D('',#530,#443,#444);
#340=AXIS2_PLACEMENT_3D('',#531,#445,#446);
#341=AXIS2_PLACEMENT_3D('',#533,#448,#449);
#342=DIRECTION('axis',(0.,0.,1.));
#343=DIRECTION('refdir',(1.,0.,0.));
#344=DIRECTION('axis',(0.,0.,1.));
#345=DIRECTION('refdir',(1.,0.,0.));
#346=DIRECTION('center_axis',(0.,-1.83697019872103E-16,-1.));
#347=DIRECTION('ref_axis',(1.,0.,0.));
#348=DIRECTION('center_axis',(0.,1.83697019872103E-16,1.));
#349=DIRECTION('ref_axis',(1.,-4.34665821647962E-16,7.98468160769897E-32));
#350=DIRECTION('center_axis',(0.,1.83697019872103E-16,1.));
#351=DIRECTION('ref_axis',(1.,-4.34665821647962E-16,7.98468160769897E-32));
#352=DIRECTION('center_axis',(1.22464679914735E-16,1.,-1.83697019872103E-16));
#353=DIRECTION('ref_axis',(-1.,1.22464679914735E-16,-2.24963967399279E-32));
#354=DIRECTION('center_axis',(0.,-1.83697019872103E-16,-1.));
#355=DIRECTION('ref_axis',(1.,-2.89629806154001E-16,5.32041322566248E-32));
#356=DIRECTION('center_axis',(0.,-1.83697019872103E-16,-1.));
#357=DIRECTION('ref_axis',(1.,-2.89629806154001E-16,5.32041322566248E-32));
#358=DIRECTION('center_axis',(0.,1.83697019872103E-16,1.));
#359=DIRECTION('ref_axis',(0.,-1.,1.83697019872103E-16));
#360=DIRECTION('center_axis',(0.,1.83697019872103E-16,1.));
#361=DIRECTION('ref_axis',(0.,1.,-1.83697019872103E-16));
#362=DIRECTION('',(0.,-1.83697019872103E-16,-1.));
#363=DIRECTION('center_axis',(0.,1.22464679914735E-16,1.));
#364=DIRECTION('ref_axis',(-1.,0.,0.));
#365=DIRECTION('center_axis',(0.,1.22464679914735E-16,1.));
#366=DIRECTION('ref_axis',(-1.,0.,0.));
#367=DIRECTION('',(0.410364677328798,6.14229963812482E-17,0.911921505175106));
#368=DIRECTION('center_axis',(0.,1.83697019872103E-16,1.));
#369=DIRECTION('ref_axis',(0.,-1.,1.83697019872103E-16));
#370=DIRECTION('center_axis',(0.,1.83697019872103E-16,1.));
#371=DIRECTION('ref_axis',(0.,-1.,1.83697019872103E-16));
#372=DIRECTION('center_axis',(0.,1.83697019872103E-16,1.));
#373=DIRECTION('ref_axis',(0.,-1.,1.83697019872103E-16));
#374=DIRECTION('',(0.,1.83697019872103E-16,1.));
#375=DIRECTION('center_axis',(0.,-1.83697019872103E-16,-1.));
#376=DIRECTION('ref_axis',(0.,-1.,1.83697019872103E-16));
#377=DIRECTION('center_axis',(0.,1.22464679914735E-16,1.));
#378=DIRECTION('ref_axis',(-1.,0.,0.));
#379=DIRECTION('',(-0.410364677328798,-6.14229963812482E-17,-0.911921505175106));
#380=DIRECTION('center_axis',(0.,1.22464679914735E-16,1.));
#381=DIRECTION('ref_axis',(-1.,0.,0.));
#382=DIRECTION('center_axis',(0.,1.83697019872103E-16,1.));
#383=DIRECTION('ref_axis',(-1.,0.,0.));
#384=DIRECTION('center_axis',(0.,1.22464679914735E-16,1.));
#385=DIRECTION('ref_axis',(-1.,0.,0.));
#386=DIRECTION('center_axis',(0.,-1.22464679914735E-16,-1.));
#387=DIRECTION('ref_axis',(1.,0.,0.));
#388=DIRECTION('center_axis',(0.,-1.22464679914735E-16,-1.));
#389=DIRECTION('ref_axis',(-1.,-1.42408380520815E-48,0.));
#390=DIRECTION('center_axis',(0.,-1.22464679914735E-16,-1.));
#391=DIRECTION('ref_axis',(-1.,0.,0.));
#392=DIRECTION('center_axis',(0.,1.22464679914735E-16,1.));
#393=DIRECTION('ref_axis',(-1.,0.,0.));
#394=DIRECTION('',(-0.475148914734884,-4.95683731244945E-17,-0.879905397657193));
#395=DIRECTION('center_axis',(0.,1.22464679914735E-16,1.));
#396=DIRECTION('ref_axis',(-1.,0.,0.));
#397=DIRECTION('center_axis',(0.,1.22464679914735E-16,1.));
#398=DIRECTION('ref_axis',(-1.,0.,0.));
#399=DIRECTION('center_axis',(0.,-1.83697019872103E-16,-1.));
#400=DIRECTION('ref_axis',(1.,-4.85036031186553E-32,-7.92123952023153E-16));
#401=DIRECTION('center_axis',(0.,1.22464679914735E-16,1.));
#402=DIRECTION('ref_axis',(-1.,-1.42408380520815E-48,0.));
#403=DIRECTION('center_axis',(-1.22464679914735E-16,-6.12323399573677E-17,
-1.));
#404=DIRECTION('ref_axis',(1.,1.07324424561705E-16,-1.22464679914735E-16));
#405=DIRECTION('',(0.475148914734884,4.95683731244946E-17,0.879905397657193));
#406=DIRECTION('center_axis',(-1.22464679914735E-16,-6.12323399573677E-17,
-1.));
#407=DIRECTION('ref_axis',(1.,1.07324424561705E-16,-1.22464679914735E-16));
#408=DIRECTION('center_axis',(8.55928149086452E-16,6.12323399573677E-17,
1.));
#409=DIRECTION('ref_axis',(0.,-1.,0.));
#410=DIRECTION('center_axis',(8.55928149086452E-16,6.12323399573677E-17,
1.));
#411=DIRECTION('ref_axis',(1.,1.78943824532947E-16,-8.56529949164612E-16));
#412=DIRECTION('center_axis',(-1.,5.24104834039421E-32,8.55928149086452E-16));
#413=DIRECTION('ref_axis',(0.,1.,-6.12323399573677E-17));
#414=DIRECTION('center_axis',(8.55928149086452E-16,6.12323399573677E-17,
1.));
#415=DIRECTION('ref_axis',(1.,1.78943824532947E-16,-8.56529949164612E-16));
#416=DIRECTION('center_axis',(-8.55928149086452E-16,-6.12323399573677E-17,
-1.));
#417=DIRECTION('ref_axis',(0.,1.,-4.86673106685001E-17));
#418=DIRECTION('center_axis',(6.41819094483915E-16,6.12323399573671E-17,
1.));
#419=DIRECTION('ref_axis',(-1.,1.54619930783654E-31,6.41819094483915E-16));
#420=DIRECTION('center_axis',(6.41819094483915E-16,6.12323399573671E-17,
1.));
#421=DIRECTION('ref_axis',(-1.,1.54619930783654E-31,6.41819094483915E-16));
#422=DIRECTION('center_axis',(-1.,5.24104834039421E-32,8.55928149086452E-16));
#423=DIRECTION('ref_axis',(0.,-1.,6.12323399573677E-17));
#424=DIRECTION('center_axis',(-8.55928149086452E-16,-6.12323399573677E-17,
-1.));
#425=DIRECTION('ref_axis',(-1.,-1.22464679914735E-16,8.55516046859017E-16));
#426=DIRECTION('center_axis',(-8.55928149086452E-16,-6.12323399573677E-17,
-1.));
#427=DIRECTION('ref_axis',(-1.,-1.22464679914735E-16,8.55516046859017E-16));
#428=DIRECTION('center_axis',(-8.55928149086452E-16,-6.12323399573677E-17,
-1.));
#429=DIRECTION('ref_axis',(1.,-4.85036031186553E-32,-7.92123952023153E-16));
#430=DIRECTION('',(8.55928149086452E-16,6.12323399573677E-17,1.));
#431=DIRECTION('center_axis',(8.55928149086452E-16,6.12323399573677E-17,
1.));
#432=DIRECTION('ref_axis',(1.,-4.85036031186553E-32,-7.92123952023153E-16));
#433=DIRECTION('center_axis',(-8.55928149086452E-16,-6.12323399573677E-17,
-1.));
#434=DIRECTION('ref_axis',(1.,-5.24104834039421E-32,-8.55928149086452E-16));
#435=DIRECTION('',(-0.0871557427476595,7.16728325556042E-17,0.996194698091745));
#436=DIRECTION('center_axis',(8.55928149086452E-16,6.12323399573677E-17,
1.));
#437=DIRECTION('ref_axis',(1.,-4.85036031186553E-32,-7.92123952023153E-16));
#438=DIRECTION('center_axis',(-8.55928149086452E-16,-6.12323399573677E-17,
-1.));
#439=DIRECTION('ref_axis',(1.,-5.24104834039421E-32,-8.55928149086452E-16));
#440=DIRECTION('',(-0.0871557427476645,7.16728325556048E-17,0.996194698091745));
#441=DIRECTION('center_axis',(-8.55928149086452E-16,-6.12323399573677E-17,
-1.));
#442=DIRECTION('ref_axis',(1.,-5.24104834039421E-32,-8.55928149086452E-16));
#443=DIRECTION('center_axis',(-8.55928149086452E-16,-6.12323399573677E-17,
-1.));
#444=DIRECTION('ref_axis',(0.,1.,-6.12323399573677E-17));
#445=DIRECTION('center_axis',(-8.55928149086452E-16,-6.12323399573677E-17,
-1.));
#446=DIRECTION('ref_axis',(1.,-4.85036031186553E-32,-7.92123952023153E-16));
#447=DIRECTION('',(8.55928149086452E-16,6.12323399573677E-17,1.));
#448=DIRECTION('',(0.,0.,1.));
#449=DIRECTION('',(1.,0.,0.));
#450=CARTESIAN_POINT('',(0.,0.,0.));
#451=CARTESIAN_POINT('',(0.,0.,0.));
#452=CARTESIAN_POINT('Origin',(1.13686837721616E-13,5.98631536743789E-14,
217.81171442366));
#453=CARTESIAN_POINT('',(-135.346171717794,8.72922043085454E-14,212.435937150653));
#454=CARTESIAN_POINT('',(135.346171717794,-1.37933799675923E-14,212.435937150653));
#455=CARTESIAN_POINT('Origin',(1.13686837721616E-13,4.50369749690287E-14,
212.435937150653));
#456=CARTESIAN_POINT('Origin',(1.13686837721616E-13,4.50369749690287E-14,
212.435937150653));
#457=CARTESIAN_POINT('',(-136.5,1.16114051022761E-13,217.81171442366));
#458=CARTESIAN_POINT('Origin',(-123.4,7.49752951758572E-14,217.81171442366));
#459=CARTESIAN_POINT('',(1.13686837721616E-13,136.5,217.81171442366));
#460=CARTESIAN_POINT('Origin',(1.13686837721616E-13,5.98631536743789E-14,
217.81171442366));
#461=CARTESIAN_POINT('Origin',(1.13686837721616E-13,5.98631536743789E-14,
217.81171442366));
#462=CARTESIAN_POINT('Origin',(1.13686837721616E-13,5.93466501140211E-14,
215.));
#463=CARTESIAN_POINT('',(1.13686837721616E-13,136.5,300.));
#464=CARTESIAN_POINT('Origin',(1.13686837721616E-13,5.54899232893521E-14,
300.));
#465=CARTESIAN_POINT('',(1.13686837721616E-13,136.5,215.));
#466=CARTESIAN_POINT('Origin',(1.13686837721616E-13,3.09575276563863E-15,
215.));
#467=CARTESIAN_POINT('',(123.,-1.56413432613159E-14,185.));
#468=CARTESIAN_POINT('Origin',(1.13686837721616E-13,-2.41515783052445E-15,
185.));
#469=CARTESIAN_POINT('',(136.5,-1.36206760427227E-14,215.));
#470=CARTESIAN_POINT('Origin',(1.13686837721616E-13,5.93466501140211E-14,
215.));
#471=CARTESIAN_POINT('',(1.13686837721616E-13,133.3,215.686831004253));
#472=CARTESIAN_POINT('',(133.3,-1.31446765279042E-14,215.686831004253));
#473=CARTESIAN_POINT('Origin',(1.13686837721616E-13,5.94728189226581E-14,
215.686831004253));
#474=CARTESIAN_POINT('Origin',(1.13686837721616E-13,5.94728189226581E-14,
215.686831004253));
#475=CARTESIAN_POINT('',(1.13686837721616E-13,133.3,300.));
#476=CARTESIAN_POINT('',(1.13686837721616E-13,133.3,215.));
#477=CARTESIAN_POINT('Origin',(1.13686837721616E-13,7.49608968031499E-14,
300.));
#478=CARTESIAN_POINT('Origin',(1.13686837721616E-13,3.25656933798226E-15,
216.313166967452));
#479=CARTESIAN_POINT('',(119.490926048086,-1.52116056429976E-14,185.));
#480=CARTESIAN_POINT('',(133.58185118344,-1.31024893096155E-14,216.313166967452));
#481=CARTESIAN_POINT('Origin',(1.13686837721616E-13,-5.7818763180342E-16,
185.));
#482=CARTESIAN_POINT('Origin',(1.13686837721616E-13,6.56231542877808E-14,
300.));
#483=CARTESIAN_POINT('Origin',(1.13686837721616E-13,-2.41515783052445E-15,
185.));
#484=CARTESIAN_POINT('Origin',(1.13686837721616E-13,4.57178985300859E-14,
185.));
#485=CARTESIAN_POINT('',(123.,3.06547429005734E-14,185.));
#486=CARTESIAN_POINT('Origin',(1.13686837721616E-13,4.57178985300859E-14,
185.));
#487=CARTESIAN_POINT('',(119.704191146319,6.03774339832721E-14,185.));
#488=CARTESIAN_POINT('Origin',(1.13686837721616E-13,4.57178985300859E-14,
185.));
#489=CARTESIAN_POINT('Origin',(1.13686837721616E-13,4.58866465133749E-14,
186.377931852731));
#490=CARTESIAN_POINT('',(106.204191146319,2.96500192578801E-14,160.));
#491=CARTESIAN_POINT('',(120.448274346794,3.11359871492125E-14,186.377931852731));
#492=CARTESIAN_POINT('Origin',(1.13686837721616E-13,4.26562815322175E-14,
160.));
#493=CARTESIAN_POINT('Origin',(1.13686837721616E-13,4.11254730332833E-14,
160.));
#494=CARTESIAN_POINT('',(-106.6,2.96015466533067E-14,160.));
#495=CARTESIAN_POINT('Origin',(1.13686837721616E-13,4.26562815322175E-14,
160.));
#496=CARTESIAN_POINT('Origin',(1.13686837721616E-13,4.57178985300859E-14,
185.));
#497=CARTESIAN_POINT('',(111.073239290691,2.94105221801379E-14,162.913406093872));
#498=CARTESIAN_POINT('',(2.27373675443232E-13,111.073239290691,162.913406093872));
#499=CARTESIAN_POINT('Origin',(0.,1.74896506890599E-14,162.913406093872));
#500=CARTESIAN_POINT('',(123.,3.06547429005734E-14,185.));
#501=CARTESIAN_POINT('Origin',(0.,1.74896506890599E-14,162.913406093872));
#502=CARTESIAN_POINT('Origin',(2.27373675443232E-13,2.28591897318394E-14,
156.688955310845));
#503=CARTESIAN_POINT('',(-109.5,5.54579349408198E-14,156.688955310845));
#504=CARTESIAN_POINT('',(2.27373675443232E-13,109.5,156.688955310845));
#505=CARTESIAN_POINT('Origin',(2.27373675443232E-13,2.28591897318394E-14,
156.688955310845));
#506=CARTESIAN_POINT('Origin',(2.27373675443232E-13,122.6,156.688955310845));
#507=CARTESIAN_POINT('Origin',(2.27373675443232E-13,2.28591897318394E-14,
156.688955310845));
#508=CARTESIAN_POINT('Origin',(1.13686837721616E-13,1.63536446598793E-14,
10.4453416176635));
#509=CARTESIAN_POINT('',(1.13686837721616E-13,-109.450150545002,9.30360138766906));
#510=CARTESIAN_POINT('',(-109.450150545002,2.96875108870865E-14,9.30360138766918));
#511=CARTESIAN_POINT('Origin',(0.,2.96875108870865E-14,9.30360138766912));
#512=CARTESIAN_POINT('Origin',(0.,2.96875108870865E-14,9.30360138766912));
#513=CARTESIAN_POINT('',(1.13686837721616E-13,-109.5,10.4453416176635));
#514=CARTESIAN_POINT('Origin',(1.13686837721616E-13,-96.3999999999999,10.4453416176635));
#515=CARTESIAN_POINT('',(-109.5,2.97635271105428E-14,10.4453416176635));
#516=CARTESIAN_POINT('Origin',(1.13686837721616E-13,1.63536446598793E-14,
10.4453416176635));
#517=CARTESIAN_POINT('Origin',(1.13686837721616E-13,1.63536446598793E-14,
10.4453416176635));
#518=CARTESIAN_POINT('Origin',(1.13686837721616E-13,2.08277592868351E-14,
83.5131784841111));
#519=CARTESIAN_POINT('',(-109.5,3.42376417374986E-14,83.5131784841111));
#520=CARTESIAN_POINT('Origin',(0.,1.60163371312988E-14,4.93669163278059));
#521=CARTESIAN_POINT('',(-108.636190893617,2.90181482959186E-14,5.6843418860808E-14));
#522=CARTESIAN_POINT('Origin',(0.,1.57140519509757E-14,0.));
#523=CARTESIAN_POINT('',(-109.068095446808,2.9373326529102E-14,4.93669163278065));
#524=CARTESIAN_POINT('Origin',(0.,1.60202136507624E-14,4.99999999999773));
#525=CARTESIAN_POINT('',(-105.725113364741,2.86616441181378E-14,1.13686837721616E-13));
#526=CARTESIAN_POINT('Origin',(0.,1.57140519509757E-14,5.6843418860808E-14));
#527=CARTESIAN_POINT('',(-106.6,2.93811102294599E-14,9.99999999999551));
#528=CARTESIAN_POINT('',(-106.16255668237,2.90213771737989E-14,4.99999999999778));
#529=CARTESIAN_POINT('Origin',(0.,1.63263753505491E-14,9.99999999999545));
#530=CARTESIAN_POINT('Origin',(105.725113364741,1.57140519509757E-14,0.));
#531=CARTESIAN_POINT('Origin',(1.13686837721616E-13,2.08316358062987E-14,
83.5764868513282));
#532=CARTESIAN_POINT('',(-106.6,3.38863706852095E-14,83.5764868513282));
#533=CARTESIAN_POINT('',(0.,0.,0.));
#534=UNCERTAINTY_MEASURE_WITH_UNIT(LENGTH_MEASURE(0.001),#540,
'DISTANCE_ACCURACY_VALUE',
'Maximum model space distance between geometric entities at asserted c
onnectivities');
#535=UNCERTAINTY_MEASURE_WITH_UNIT(LENGTH_MEASURE(0.001),#540,
'DISTANCE_ACCURACY_VALUE',
'Maximum model space distance between geometric entities at asserted c
onnectivities');
#536=UNCERTAINTY_MEASURE_WITH_UNIT(LENGTH_MEASURE(0.001),#540,
'DISTANCE_ACCURACY_VALUE',
'Maximum model space distance between geometric entities at asserted c
onnectivities');
#537=(
GEOMETRIC_REPRESENTATION_CONTEXT(3)
GLOBAL_UNCERTAINTY_ASSIGNED_CONTEXT((#534))
GLOBAL_UNIT_ASSIGNED_CONTEXT((#540,#541,#542))
REPRESENTATION_CONTEXT('','3D')
);
#538=(
GEOMETRIC_REPRESENTATION_CONTEXT(3)
GLOBAL_UNCERTAINTY_ASSIGNED_CONTEXT((#535))
GLOBAL_UNIT_ASSIGNED_CONTEXT((#540,#541,#542))
REPRESENTATION_CONTEXT('','3D')
);
#539=(
GEOMETRIC_REPRESENTATION_CONTEXT(3)
GLOBAL_UNCERTAINTY_ASSIGNED_CONTEXT((#536))
GLOBAL_UNIT_ASSIGNED_CONTEXT((#540,#541,#542))
REPRESENTATION_CONTEXT('','3D')
);
#540=(
LENGTH_UNIT()
NAMED_UNIT(*)
SI_UNIT(.CENTI.,.METRE.)
);
#541=(
NAMED_UNIT(*)
PLANE_ANGLE_UNIT()
SI_UNIT($,.RADIAN.)
);
#542=(
NAMED_UNIT(*)
SI_UNIT($,.STERADIAN.)
SOLID_ANGLE_UNIT()
);
#543=SHAPE_DEFINITION_REPRESENTATION(#545,#548);
#544=SHAPE_DEFINITION_REPRESENTATION(#546,#549);
#545=PRODUCT_DEFINITION_SHAPE('',$,#551);
#546=PRODUCT_DEFINITION_SHAPE('',$,#552);
#547=PRODUCT_DEFINITION_SHAPE($,$,#17);
#548=SHAPE_REPRESENTATION('',(#293,#341),#537);
#549=SHAPE_REPRESENTATION('',(#294),#538);
#550=PRODUCT_DEFINITION_CONTEXT('part definition',#558,'design');
#551=PRODUCT_DEFINITION('Product','Product',#553,#550);
#552=PRODUCT_DEFINITION('*S0','*S0',#554,#550);
#553=PRODUCT_DEFINITION_FORMATION('',$,#560);
#554=PRODUCT_DEFINITION_FORMATION('',$,#561);
#555=PRODUCT_RELATED_PRODUCT_CATEGORY('Product','Product',(#560));
#556=PRODUCT_RELATED_PRODUCT_CATEGORY('*S0','*S0',(#561));
#557=APPLICATION_PROTOCOL_DEFINITION('international standard',
'automotive_design',2009,#558);
#558=APPLICATION_CONTEXT(
'Core Data for Automotive Mechanical Design Process');
#559=PRODUCT_CONTEXT('part definition',#558,'mechanical');
#560=PRODUCT('Product','Product',$,(#559));
#561=PRODUCT('*S0','*S0',$,(#559));
#562=PRESENTATION_STYLE_ASSIGNMENT((#563));
#563=SURFACE_STYLE_USAGE(.BOTH.,#564);
#564=SURFACE_SIDE_STYLE('',(#565));
#565=SURFACE_STYLE_FILL_AREA(#566);
#566=FILL_AREA_STYLE('',(#567));
#567=FILL_AREA_STYLE_COLOUR('',#568);
#568=COLOUR_RGB('',0.870588235294118,0.870588235294118,0.870588235294118);
ENDSEC;
END-ISO-10303-21;
