ISO-10303-21;
HEADER;
/* Generated by software containing ST-Developer
 * from STEP Tools, Inc. (www.steptools.com) 
 */

FILE_DESCRIPTION(
/* description */ (''),
/* implementation_level */ '2;1');

FILE_NAME(
/* name */ '03004.250O_3D.stp',
/* time_stamp */ '2025-09-08T11:43:16+02:00',
/* author */ ('N.Hausmann'),
/* organization */ (''),
/* preprocessor_version */ 'ST-DEVELOPER v20',
/* originating_system */ 'AutoCAD Mechanical',
/* authorisation */ '');

FILE_SCHEMA (('AUTOMOTIVE_DESIGN { 1 0 10303 214 3 1 1 }'));
ENDSEC;

DATA;
#10=MECHANICAL_DESIGN_GEOMETRIC_PRESENTATION_REPRESENTATION('',(#18,#19,
#20),#314);
#11=PRESENTATION_LAYER_ASSIGNMENT('4','Material (Verzinkt)',(#21,#22,#23));
#12=SHAPE_REPRESENTATION_RELATIONSHIP('SRR','None',#323,#13);
#13=ADVANCED_BREP_SHAPE_REPRESENTATION('',(#21,#22,#23),#312);
#14=ITEM_DEFINED_TRANSFORMATION($,$,#178,#203);
#15=(
REPRESENTATION_RELATIONSHIP($,$,#324,#323)
REPRESENTATION_RELATIONSHIP_WITH_TRANSFORMATION(#14)
SHAPE_REPRESENTATION_RELATIONSHIP()
);
#16=CONTEXT_DEPENDENT_SHAPE_REPRESENTATION(#15,#322);
#17=NEXT_ASSEMBLY_USAGE_OCCURRENCE('18BF','18BF','18BF',#326,#327,
'18BF');
#18=STYLED_ITEM('',(#337),#21);
#19=STYLED_ITEM('',(#337),#22);
#20=STYLED_ITEM('',(#337),#23);
#21=MANIFOLD_SOLID_BREP('22557',#174);
#22=MANIFOLD_SOLID_BREP('2268F',#175);
#23=MANIFOLD_SOLID_BREP('226B7',#176);
#24=FACE_BOUND('',#50,.T.);
#25=FACE_BOUND('',#52,.T.);
#26=FACE_BOUND('',#56,.T.);
#27=FACE_BOUND('',#58,.T.);
#28=FACE_BOUND('',#62,.T.);
#29=FACE_BOUND('',#64,.T.);
#30=PLANE('',#182);
#31=PLANE('',#184);
#32=PLANE('',#190);
#33=PLANE('',#192);
#34=PLANE('',#198);
#35=PLANE('',#200);
#36=FACE_OUTER_BOUND('',#48,.T.);
#37=FACE_OUTER_BOUND('',#49,.T.);
#38=FACE_OUTER_BOUND('',#51,.T.);
#39=FACE_OUTER_BOUND('',#53,.T.);
#40=FACE_OUTER_BOUND('',#54,.T.);
#41=FACE_OUTER_BOUND('',#55,.T.);
#42=FACE_OUTER_BOUND('',#57,.T.);
#43=FACE_OUTER_BOUND('',#59,.T.);
#44=FACE_OUTER_BOUND('',#60,.T.);
#45=FACE_OUTER_BOUND('',#61,.T.);
#46=FACE_OUTER_BOUND('',#63,.T.);
#47=FACE_OUTER_BOUND('',#65,.T.);
#48=EDGE_LOOP('',(#120,#121,#122,#123));
#49=EDGE_LOOP('',(#124));
#50=EDGE_LOOP('',(#125));
#51=EDGE_LOOP('',(#126));
#52=EDGE_LOOP('',(#127));
#53=EDGE_LOOP('',(#128,#129,#130,#131));
#54=EDGE_LOOP('',(#132,#133,#134,#135));
#55=EDGE_LOOP('',(#136));
#56=EDGE_LOOP('',(#137));
#57=EDGE_LOOP('',(#138));
#58=EDGE_LOOP('',(#139));
#59=EDGE_LOOP('',(#140,#141,#142,#143));
#60=EDGE_LOOP('',(#144,#145,#146,#147));
#61=EDGE_LOOP('',(#148));
#62=EDGE_LOOP('',(#149));
#63=EDGE_LOOP('',(#150));
#64=EDGE_LOOP('',(#151));
#65=EDGE_LOOP('',(#152,#153,#154,#155));
#66=CIRCLE('',#181,133.3);
#67=CIRCLE('',#183,136.5);
#68=CIRCLE('',#196,133.3);
#69=CIRCLE('',#199,136.5);
#70=LINE('',#270,#76);
#71=LINE('',#279,#77);
#72=LINE('',#284,#78);
#73=LINE('',#293,#79);
#74=LINE('',#298,#80);
#75=LINE('',#307,#81);
#76=VECTOR('',#212,1.);
#77=VECTOR('',#225,136.5);
#78=VECTOR('',#230,1.);
#79=VECTOR('',#243,136.5);
#80=VECTOR('',#248,133.3);
#81=VECTOR('',#261,136.5);
#82=ELLIPSE('',#180,143.768681198922,133.3);
#83=ELLIPSE('',#185,147.21999237549,136.5);
#84=ELLIPSE('',#188,143.768681198922,133.3);
#85=ELLIPSE('',#189,143.768681198922,133.3);
#86=ELLIPSE('',#191,147.21999237549,136.5);
#87=ELLIPSE('',#193,147.21999237549,136.5);
#88=ELLIPSE('',#197,143.768681198922,133.3);
#89=ELLIPSE('',#201,147.21999237549,136.5);
#90=VERTEX_POINT('',#267);
#91=VERTEX_POINT('',#269);
#92=VERTEX_POINT('',#273);
#93=VERTEX_POINT('',#276);
#94=VERTEX_POINT('',#281);
#95=VERTEX_POINT('',#283);
#96=VERTEX_POINT('',#287);
#97=VERTEX_POINT('',#290);
#98=VERTEX_POINT('',#295);
#99=VERTEX_POINT('',#297);
#100=VERTEX_POINT('',#301);
#101=VERTEX_POINT('',#304);
#102=EDGE_CURVE('',#90,#90,#82,.T.);
#103=EDGE_CURVE('',#91,#90,#70,.T.);
#104=EDGE_CURVE('',#91,#91,#66,.T.);
#105=EDGE_CURVE('',#92,#92,#67,.T.);
#106=EDGE_CURVE('',#93,#93,#83,.T.);
#107=EDGE_CURVE('',#93,#92,#71,.T.);
#108=EDGE_CURVE('',#94,#94,#84,.T.);
#109=EDGE_CURVE('',#94,#95,#72,.T.);
#110=EDGE_CURVE('',#95,#95,#85,.T.);
#111=EDGE_CURVE('',#96,#96,#86,.T.);
#112=EDGE_CURVE('',#97,#97,#87,.T.);
#113=EDGE_CURVE('',#97,#96,#73,.T.);
#114=EDGE_CURVE('',#98,#98,#68,.T.);
#115=EDGE_CURVE('',#98,#99,#74,.T.);
#116=EDGE_CURVE('',#99,#99,#88,.T.);
#117=EDGE_CURVE('',#100,#100,#69,.T.);
#118=EDGE_CURVE('',#101,#101,#89,.T.);
#119=EDGE_CURVE('',#101,#100,#75,.T.);
#120=ORIENTED_EDGE('',*,*,#102,.F.);
#121=ORIENTED_EDGE('',*,*,#103,.F.);
#122=ORIENTED_EDGE('',*,*,#104,.F.);
#123=ORIENTED_EDGE('',*,*,#103,.T.);
#124=ORIENTED_EDGE('',*,*,#105,.F.);
#125=ORIENTED_EDGE('',*,*,#104,.T.);
#126=ORIENTED_EDGE('',*,*,#106,.F.);
#127=ORIENTED_EDGE('',*,*,#102,.T.);
#128=ORIENTED_EDGE('',*,*,#106,.T.);
#129=ORIENTED_EDGE('',*,*,#107,.T.);
#130=ORIENTED_EDGE('',*,*,#105,.T.);
#131=ORIENTED_EDGE('',*,*,#107,.F.);
#132=ORIENTED_EDGE('',*,*,#108,.F.);
#133=ORIENTED_EDGE('',*,*,#109,.T.);
#134=ORIENTED_EDGE('',*,*,#110,.F.);
#135=ORIENTED_EDGE('',*,*,#109,.F.);
#136=ORIENTED_EDGE('',*,*,#111,.F.);
#137=ORIENTED_EDGE('',*,*,#108,.T.);
#138=ORIENTED_EDGE('',*,*,#112,.F.);
#139=ORIENTED_EDGE('',*,*,#110,.T.);
#140=ORIENTED_EDGE('',*,*,#112,.T.);
#141=ORIENTED_EDGE('',*,*,#113,.T.);
#142=ORIENTED_EDGE('',*,*,#111,.T.);
#143=ORIENTED_EDGE('',*,*,#113,.F.);
#144=ORIENTED_EDGE('',*,*,#114,.F.);
#145=ORIENTED_EDGE('',*,*,#115,.T.);
#146=ORIENTED_EDGE('',*,*,#116,.F.);
#147=ORIENTED_EDGE('',*,*,#115,.F.);
#148=ORIENTED_EDGE('',*,*,#117,.F.);
#149=ORIENTED_EDGE('',*,*,#114,.T.);
#150=ORIENTED_EDGE('',*,*,#118,.F.);
#151=ORIENTED_EDGE('',*,*,#116,.T.);
#152=ORIENTED_EDGE('',*,*,#118,.T.);
#153=ORIENTED_EDGE('',*,*,#119,.T.);
#154=ORIENTED_EDGE('',*,*,#117,.T.);
#155=ORIENTED_EDGE('',*,*,#119,.F.);
#156=CYLINDRICAL_SURFACE('',#179,133.3);
#157=CYLINDRICAL_SURFACE('',#186,136.5);
#158=CYLINDRICAL_SURFACE('',#187,133.3);
#159=CYLINDRICAL_SURFACE('',#194,136.5);
#160=CYLINDRICAL_SURFACE('',#195,133.3);
#161=CYLINDRICAL_SURFACE('',#202,136.5);
#162=ADVANCED_FACE('',(#36),#156,.F.);
#163=ADVANCED_FACE('',(#37,#24),#30,.T.);
#164=ADVANCED_FACE('',(#38,#25),#31,.F.);
#165=ADVANCED_FACE('',(#39),#157,.T.);
#166=ADVANCED_FACE('',(#40),#158,.F.);
#167=ADVANCED_FACE('',(#41,#26),#32,.F.);
#168=ADVANCED_FACE('',(#42,#27),#33,.F.);
#169=ADVANCED_FACE('',(#43),#159,.T.);
#170=ADVANCED_FACE('',(#44),#160,.F.);
#171=ADVANCED_FACE('',(#45,#28),#34,.T.);
#172=ADVANCED_FACE('',(#46,#29),#35,.F.);
#173=ADVANCED_FACE('',(#47),#161,.T.);
#174=CLOSED_SHELL('',(#162,#163,#164,#165));
#175=CLOSED_SHELL('',(#166,#167,#168,#169));
#176=CLOSED_SHELL('',(#170,#171,#172,#173));
#177=AXIS2_PLACEMENT_3D('',#264,#204,#205);
#178=AXIS2_PLACEMENT_3D('',#265,#206,#207);
#179=AXIS2_PLACEMENT_3D('',#266,#208,#209);
#180=AXIS2_PLACEMENT_3D('',#268,#210,#211);
#181=AXIS2_PLACEMENT_3D('',#271,#213,#214);
#182=AXIS2_PLACEMENT_3D('',#272,#215,#216);
#183=AXIS2_PLACEMENT_3D('',#274,#217,#218);
#184=AXIS2_PLACEMENT_3D('',#275,#219,#220);
#185=AXIS2_PLACEMENT_3D('',#277,#221,#222);
#186=AXIS2_PLACEMENT_3D('',#278,#223,#224);
#187=AXIS2_PLACEMENT_3D('',#280,#226,#227);
#188=AXIS2_PLACEMENT_3D('',#282,#228,#229);
#189=AXIS2_PLACEMENT_3D('',#285,#231,#232);
#190=AXIS2_PLACEMENT_3D('',#286,#233,#234);
#191=AXIS2_PLACEMENT_3D('',#288,#235,#236);
#192=AXIS2_PLACEMENT_3D('',#289,#237,#238);
#193=AXIS2_PLACEMENT_3D('',#291,#239,#240);
#194=AXIS2_PLACEMENT_3D('',#292,#241,#242);
#195=AXIS2_PLACEMENT_3D('',#294,#244,#245);
#196=AXIS2_PLACEMENT_3D('',#296,#246,#247);
#197=AXIS2_PLACEMENT_3D('',#299,#249,#250);
#198=AXIS2_PLACEMENT_3D('',#300,#251,#252);
#199=AXIS2_PLACEMENT_3D('',#302,#253,#254);
#200=AXIS2_PLACEMENT_3D('',#303,#255,#256);
#201=AXIS2_PLACEMENT_3D('',#305,#257,#258);
#202=AXIS2_PLACEMENT_3D('',#306,#259,#260);
#203=AXIS2_PLACEMENT_3D('',#308,#262,#263);
#204=DIRECTION('axis',(0.,0.,1.));
#205=DIRECTION('refdir',(1.,0.,0.));
#206=DIRECTION('axis',(0.,0.,1.));
#207=DIRECTION('refdir',(1.,0.,0.));
#208=DIRECTION('center_axis',(0.,0.,1.));
#209=DIRECTION('ref_axis',(-1.,0.,0.));
#210=DIRECTION('center_axis',(1.05408600412237E-16,0.374606593415912,-0.927183854566788));
#211=DIRECTION('ref_axis',(0.,-0.927183854566788,-0.374606593415912));
#212=DIRECTION('',(0.,0.,1.));
#213=DIRECTION('center_axis',(0.,0.,1.));
#214=DIRECTION('ref_axis',(-1.,0.,0.));
#215=DIRECTION('center_axis',(0.,0.,-1.));
#216=DIRECTION('ref_axis',(-1.,0.,0.));
#217=DIRECTION('center_axis',(0.,0.,1.));
#218=DIRECTION('ref_axis',(-1.,0.,0.));
#219=DIRECTION('center_axis',(1.05408600412237E-16,0.374606593415912,-0.927183854566788));
#220=DIRECTION('ref_axis',(0.,-0.927183854566788,-0.374606593415912));
#221=DIRECTION('center_axis',(1.05408600412237E-16,0.374606593415912,-0.927183854566788));
#222=DIRECTION('ref_axis',(0.,-0.927183854566788,-0.374606593415912));
#223=DIRECTION('center_axis',(0.,0.,1.));
#224=DIRECTION('ref_axis',(-1.,0.,0.));
#225=DIRECTION('',(0.,0.,-1.));
#226=DIRECTION('center_axis',(-6.26168067796193E-33,-0.694658370458997,
0.719339800338651));
#227=DIRECTION('ref_axis',(-1.,-2.36717450929036E-32,2.36717450929036E-32));
#228=DIRECTION('center_axis',(6.88141148349436E-17,-0.374606593415912,0.927183854566787));
#229=DIRECTION('ref_axis',(2.19480598595608E-32,-0.927183854566787,-0.374606593415912));
#230=DIRECTION('',(-6.26168067796194E-33,-0.694658370458997,0.719339800338651));
#231=DIRECTION('center_axis',(6.88141148349436E-17,0.913545457642601,-0.4067366430758));
#232=DIRECTION('ref_axis',(2.19480598595608E-32,-0.4067366430758,-0.913545457642601));
#233=DIRECTION('center_axis',(6.88141148349436E-17,-0.374606593415912,0.927183854566787));
#234=DIRECTION('ref_axis',(-1.70320910957448E-16,-0.927183854566787,-0.374606593415912));
#235=DIRECTION('center_axis',(6.88141148349436E-17,-0.374606593415912,0.927183854566787));
#236=DIRECTION('ref_axis',(-1.70320910957448E-16,-0.927183854566787,-0.374606593415912));
#237=DIRECTION('center_axis',(6.88141148349436E-17,0.913545457642601,-0.4067366430758));
#238=DIRECTION('ref_axis',(1.70320910957448E-16,0.4067366430758,0.913545457642601));
#239=DIRECTION('center_axis',(6.88141148349436E-17,0.913545457642601,-0.4067366430758));
#240=DIRECTION('ref_axis',(-1.70320910957448E-16,-0.4067366430758,-0.913545457642601));
#241=DIRECTION('center_axis',(0.,-0.694658370458997,0.719339800338651));
#242=DIRECTION('ref_axis',(-1.83697019872103E-16,-0.719339800338651,-0.694658370458997));
#243=DIRECTION('',(0.,0.694658370458997,-0.719339800338651));
#244=DIRECTION('center_axis',(9.4226065752769E-33,0.999390827019096,-0.0348994967025019));
#245=DIRECTION('ref_axis',(1.,8.1371623756856E-33,-2.36717450929036E-32));
#246=DIRECTION('center_axis',(-4.58214160913562E-18,0.999390827019096,-0.034899496702503));
#247=DIRECTION('ref_axis',(1.,8.1371623756856E-33,-2.36717450929036E-32));
#248=DIRECTION('',(9.4226065752769E-33,0.999390827019096,-0.0348994967025019));
#249=DIRECTION('center_axis',(-1.51284676968866E-16,-0.9135454576426,0.406736643075802));
#250=DIRECTION('ref_axis',(2.19480598595607E-32,-0.406736643075802,-0.9135454576426));
#251=DIRECTION('center_axis',(4.58214160913562E-18,-0.999390827019096,0.034899496702503));
#252=DIRECTION('ref_axis',(0.,-0.034899496702503,-0.999390827019096));
#253=DIRECTION('center_axis',(-4.58214160913562E-18,0.999390827019096,-0.034899496702503));
#254=DIRECTION('ref_axis',(1.,4.27395569285739E-18,1.22390077740616E-16));
#255=DIRECTION('center_axis',(-1.51284676968866E-16,-0.9135454576426,0.406736643075802));
#256=DIRECTION('ref_axis',(1.13547273971632E-16,-0.406736643075802,-0.9135454576426));
#257=DIRECTION('center_axis',(-1.51284676968866E-16,-0.9135454576426,0.406736643075802));
#258=DIRECTION('ref_axis',(1.13547273971632E-16,-0.406736643075802,-0.9135454576426));
#259=DIRECTION('center_axis',(0.,0.999390827019096,-0.034899496702503));
#260=DIRECTION('ref_axis',(1.,4.27395569285739E-18,1.22390077740616E-16));
#261=DIRECTION('',(0.,-0.999390827019096,0.0348994967025029));
#262=DIRECTION('',(0.,0.,1.));
#263=DIRECTION('',(1.,0.,0.));
#264=CARTESIAN_POINT('',(0.,0.,0.));
#265=CARTESIAN_POINT('',(0.,0.,0.));
#266=CARTESIAN_POINT('Origin',(0.,0.,104.1));
#267=CARTESIAN_POINT('',(133.3,0.,244.850420173501));
#268=CARTESIAN_POINT('Origin',(0.,0.,244.850420173501));
#269=CARTESIAN_POINT('',(133.3,0.,104.1));
#270=CARTESIAN_POINT('',(133.3,0.,104.1));
#271=CARTESIAN_POINT('Origin',(0.,0.,104.1));
#272=CARTESIAN_POINT('Origin',(3.34642688594455,-7.105427357601E-14,104.1));
#273=CARTESIAN_POINT('',(136.5,-2.8421709430404E-14,104.1));
#274=CARTESIAN_POINT('Origin',(2.1316282072803E-14,-2.8421709430404E-14,
104.1));
#275=CARTESIAN_POINT('Origin',(5.6843418860808E-14,136.5,300.));
#276=CARTESIAN_POINT('',(136.5,-1.4210854715202E-14,244.850420173501));
#277=CARTESIAN_POINT('Origin',(2.1316282072803E-14,-2.8421709430404E-14,
244.850420173501));
#278=CARTESIAN_POINT('Origin',(2.1316282072803E-14,-2.8421709430404E-14,
0.));
#279=CARTESIAN_POINT('',(136.5,-1.4210854715202E-14,0.));
#280=CARTESIAN_POINT('Origin',(-2.08839332881442E-29,49.5206718071603,193.570263357913));
#281=CARTESIAN_POINT('',(133.3,-1.4210854715202E-13,244.850420173501));
#282=CARTESIAN_POINT('Origin',(-2.13303147714764E-29,-1.20792265079217E-13,
244.850420173501));
#283=CARTESIAN_POINT('',(133.3,-104.19875556885,352.751390224299));
#284=CARTESIAN_POINT('',(133.3,49.5206718071602,193.570263357913));
#285=CARTESIAN_POINT('Origin',(-2.22695668731707E-29,-104.19875556885,352.751390224299));
#286=CARTESIAN_POINT('Origin',(2.50746432125421E-14,136.5,300.));
#287=CARTESIAN_POINT('',(2.50746432125421E-14,136.5,300.));
#288=CARTESIAN_POINT('Origin',(0.,-7.105427357601E-15,244.850420173501));
#289=CARTESIAN_POINT('Origin',(-2.50746432125421E-14,-164.078521061301,
218.259234915491));
#290=CARTESIAN_POINT('',(2.50746432125421E-14,-44.3189900763979,487.243545533106));
#291=CARTESIAN_POINT('Origin',(0.,-104.19875556885,352.751390224299));
#292=CARTESIAN_POINT('Origin',(0.,38.3101172537741,205.179132432347));
#293=CARTESIAN_POINT('',(8.35821440418069E-15,136.5,300.));
#294=CARTESIAN_POINT('Origin',(1.4210854715202E-14,-244.863434389331,357.66350904902));
#295=CARTESIAN_POINT('',(-133.3,-244.863434389331,357.66350904902));
#296=CARTESIAN_POINT('Origin',(1.4210854715202E-14,-244.86343438933,357.66350904902));
#297=CARTESIAN_POINT('',(-133.3,-104.19875556885,352.751390224299));
#298=CARTESIAN_POINT('',(-133.3,-244.863434389331,357.66350904902));
#299=CARTESIAN_POINT('Origin',(1.4210854715202E-14,-104.19875556885,352.751390224299));
#300=CARTESIAN_POINT('Origin',(-7.105427357601E-15,-244.86343438933,357.66350904902));
#301=CARTESIAN_POINT('',(-136.5,-244.86343438933,357.66350904902));
#302=CARTESIAN_POINT('Origin',(7.105427357601E-15,-244.86343438933,357.66350904902));
#303=CARTESIAN_POINT('Origin',(-4.9737991503207E-14,-44.3189900763979,487.243545533106));
#304=CARTESIAN_POINT('',(-136.5,-104.19875556885,352.751390224299));
#305=CARTESIAN_POINT('Origin',(7.105427357601E-15,-104.19875556885,352.751390224299));
#306=CARTESIAN_POINT('Origin',(7.105427357601E-15,-348.900019482018,361.296546655751));
#307=CARTESIAN_POINT('',(-136.5,-348.900019482018,361.296546655751));
#308=CARTESIAN_POINT('',(0.,0.,0.));
#309=UNCERTAINTY_MEASURE_WITH_UNIT(LENGTH_MEASURE(0.001),#315,
'DISTANCE_ACCURACY_VALUE',
'Maximum model space distance between geometric entities at asserted c
onnectivities');
#310=UNCERTAINTY_MEASURE_WITH_UNIT(LENGTH_MEASURE(0.001),#315,
'DISTANCE_ACCURACY_VALUE',
'Maximum model space distance between geometric entities at asserted c
onnectivities');
#311=UNCERTAINTY_MEASURE_WITH_UNIT(LENGTH_MEASURE(0.001),#315,
'DISTANCE_ACCURACY_VALUE',
'Maximum model space distance between geometric entities at asserted c
onnectivities');
#312=(
GEOMETRIC_REPRESENTATION_CONTEXT(3)
GLOBAL_UNCERTAINTY_ASSIGNED_CONTEXT((#309))
GLOBAL_UNIT_ASSIGNED_CONTEXT((#315,#316,#317))
REPRESENTATION_CONTEXT('','3D')
);
#313=(
GEOMETRIC_REPRESENTATION_CONTEXT(3)
GLOBAL_UNCERTAINTY_ASSIGNED_CONTEXT((#310))
GLOBAL_UNIT_ASSIGNED_CONTEXT((#315,#316,#317))
REPRESENTATION_CONTEXT('','3D')
);
#314=(
GEOMETRIC_REPRESENTATION_CONTEXT(3)
GLOBAL_UNCERTAINTY_ASSIGNED_CONTEXT((#311))
GLOBAL_UNIT_ASSIGNED_CONTEXT((#315,#316,#317))
REPRESENTATION_CONTEXT('','3D')
);
#315=(
LENGTH_UNIT()
NAMED_UNIT(*)
SI_UNIT(.CENTI.,.METRE.)
);
#316=(
NAMED_UNIT(*)
PLANE_ANGLE_UNIT()
SI_UNIT($,.RADIAN.)
);
#317=(
NAMED_UNIT(*)
SI_UNIT($,.STERADIAN.)
SOLID_ANGLE_UNIT()
);
#318=SHAPE_DEFINITION_REPRESENTATION(#320,#323);
#319=SHAPE_DEFINITION_REPRESENTATION(#321,#324);
#320=PRODUCT_DEFINITION_SHAPE('',$,#326);
#321=PRODUCT_DEFINITION_SHAPE('',$,#327);
#322=PRODUCT_DEFINITION_SHAPE($,$,#17);
#323=SHAPE_REPRESENTATION('',(#177,#203),#312);
#324=SHAPE_REPRESENTATION('',(#178),#313);
#325=PRODUCT_DEFINITION_CONTEXT('part definition',#333,'design');
#326=PRODUCT_DEFINITION('Product','Product',#328,#325);
#327=PRODUCT_DEFINITION('*S0','*S0',#329,#325);
#328=PRODUCT_DEFINITION_FORMATION('',$,#335);
#329=PRODUCT_DEFINITION_FORMATION('',$,#336);
#330=PRODUCT_RELATED_PRODUCT_CATEGORY('Product','Product',(#335));
#331=PRODUCT_RELATED_PRODUCT_CATEGORY('*S0','*S0',(#336));
#332=APPLICATION_PROTOCOL_DEFINITION('international standard',
'automotive_design',2009,#333);
#333=APPLICATION_CONTEXT(
'Core Data for Automotive Mechanical Design Process');
#334=PRODUCT_CONTEXT('part definition',#333,'mechanical');
#335=PRODUCT('Product','Product',$,(#334));
#336=PRODUCT('*S0','*S0',$,(#334));
#337=PRESENTATION_STYLE_ASSIGNMENT((#338));
#338=SURFACE_STYLE_USAGE(.BOTH.,#339);
#339=SURFACE_SIDE_STYLE('',(#340));
#340=SURFACE_STYLE_FILL_AREA(#341);
#341=FILL_AREA_STYLE('',(#342));
#342=FILL_AREA_STYLE_COLOUR('',#343);
#343=COLOUR_RGB('',0.870588235294118,0.870588235294118,0.870588235294118);
ENDSEC;
END-ISO-10303-21;
