ISO-10303-21;
HEADER;
/* Generated by software containing ST-Developer
 * from STEP Tools, Inc. (www.steptools.com) 
 */

FILE_DESCRIPTION(
/* description */ (''),
/* implementation_level */ '2;1');

FILE_NAME(
/* name */ '00911.070X_3D.stp',
/* time_stamp */ '2024-12-11T13:01:18+01:00',
/* author */ ('CAD'),
/* organization */ (''),
/* preprocessor_version */ 'ST-DEVELOPER v20',
/* originating_system */ 'AutoCAD Mechanical',
/* authorisation */ '');

FILE_SCHEMA (('AUTOMOTIVE_DESIGN { 1 0 10303 214 3 1 1 }'));
ENDSEC;

DATA;
#10=MECHANICAL_DESIGN_GEOMETRIC_PRESENTATION_REPRESENTATION('',(#18),#588);
#11=PRESENTATION_LAYER_ASSIGNMENT('2','GUMMI',(#19));
#12=ITEM_DEFINED_TRANSFORMATION($,$,#369,#370);
#13=(
REPRESENTATION_RELATIONSHIP($,$,#598,#597)
REPRESENTATION_RELATIONSHIP_WITH_TRANSFORMATION(#12)
SHAPE_REPRESENTATION_RELATIONSHIP()
);
#14=CONTEXT_DEPENDENT_SHAPE_REPRESENTATION(#13,#596);
#15=NEXT_ASSEMBLY_USAGE_OCCURRENCE('3F2','3F2','3F2',#600,#601,'3F2');
#16=SHAPE_REPRESENTATION_RELATIONSHIP('SRR','None',#597,#17);
#17=ADVANCED_BREP_SHAPE_REPRESENTATION('',(#19),#586);
#18=STYLED_ITEM('',(#611),#19);
#19=MANIFOLD_SOLID_BREP('386',#316);
#20=FACE_BOUND('',#63,.T.);
#21=FACE_BOUND('',#73,.T.);
#22=FACE_BOUND('',#78,.T.);
#23=PLANE('',#331);
#24=PLANE('',#351);
#25=PLANE('',#362);
#26=TOROIDAL_SURFACE('',#325,38.897061515428,0.999999999999999);
#27=TOROIDAL_SURFACE('',#333,39.2140740033711,0.5);
#28=TOROIDAL_SURFACE('',#356,39.3836461788299,0.900000000000001);
#29=TOROIDAL_SURFACE('',#359,34.5,3.99999999999997);
#30=TOROIDAL_SURFACE('',#367,32.,5.);
#31=CONICAL_SURFACE('',#322,37.4561268812079,0.174532925199429);
#32=CONICAL_SURFACE('',#329,41.0340866163887,0.513334732775818);
#33=CONICAL_SURFACE('',#337,39.6221138464891,0.349065850398862);
#34=CONICAL_SURFACE('',#341,41.2,0.785398163397448);
#35=CONICAL_SURFACE('',#345,41.2,0.785398163397448);
#36=CONICAL_SURFACE('',#349,41.65,0.521834279814402);
#37=CONICAL_SURFACE('',#353,40.5878329020845,0.494888214618565);
#38=FACE_OUTER_BOUND('',#58,.T.);
#39=FACE_OUTER_BOUND('',#59,.T.);
#40=FACE_OUTER_BOUND('',#60,.T.);
#41=FACE_OUTER_BOUND('',#61,.T.);
#42=FACE_OUTER_BOUND('',#62,.T.);
#43=FACE_OUTER_BOUND('',#64,.T.);
#44=FACE_OUTER_BOUND('',#65,.T.);
#45=FACE_OUTER_BOUND('',#66,.T.);
#46=FACE_OUTER_BOUND('',#67,.T.);
#47=FACE_OUTER_BOUND('',#68,.T.);
#48=FACE_OUTER_BOUND('',#69,.T.);
#49=FACE_OUTER_BOUND('',#70,.T.);
#50=FACE_OUTER_BOUND('',#71,.T.);
#51=FACE_OUTER_BOUND('',#72,.T.);
#52=FACE_OUTER_BOUND('',#74,.T.);
#53=FACE_OUTER_BOUND('',#75,.T.);
#54=FACE_OUTER_BOUND('',#76,.T.);
#55=FACE_OUTER_BOUND('',#77,.T.);
#56=FACE_OUTER_BOUND('',#79,.T.);
#57=FACE_OUTER_BOUND('',#80,.T.);
#58=EDGE_LOOP('',(#205,#206,#207,#208,#209));
#59=EDGE_LOOP('',(#210,#211,#212,#213,#214));
#60=EDGE_LOOP('',(#215,#216,#217,#218,#219,#220));
#61=EDGE_LOOP('',(#221,#222,#223,#224,#225));
#62=EDGE_LOOP('',(#226));
#63=EDGE_LOOP('',(#227));
#64=EDGE_LOOP('',(#228,#229,#230,#231,#232));
#65=EDGE_LOOP('',(#233,#234,#235,#236,#237));
#66=EDGE_LOOP('',(#238,#239,#240,#241));
#67=EDGE_LOOP('',(#242,#243,#244,#245));
#68=EDGE_LOOP('',(#246,#247,#248,#249));
#69=EDGE_LOOP('',(#250,#251,#252,#253));
#70=EDGE_LOOP('',(#254,#255,#256,#257));
#71=EDGE_LOOP('',(#258,#259,#260,#261));
#72=EDGE_LOOP('',(#262));
#73=EDGE_LOOP('',(#263));
#74=EDGE_LOOP('',(#264,#265,#266,#267,#268));
#75=EDGE_LOOP('',(#269,#270,#271,#272,#273));
#76=EDGE_LOOP('',(#274,#275,#276,#277));
#77=EDGE_LOOP('',(#278));
#78=EDGE_LOOP('',(#279));
#79=EDGE_LOOP('',(#280,#281,#282,#283,#284));
#80=EDGE_LOOP('',(#285,#286,#287,#288,#289,#290));
#81=LINE('',#497,#93);
#82=LINE('',#502,#94);
#83=LINE('',#515,#95);
#84=LINE('',#528,#96);
#85=LINE('',#532,#97);
#86=LINE('',#536,#98);
#87=LINE('',#540,#99);
#88=LINE('',#544,#100);
#89=LINE('',#548,#101);
#90=LINE('',#552,#102);
#91=LINE('',#558,#103);
#92=LINE('',#575,#104);
#93=VECTOR('',#377,37.);
#94=VECTOR('',#384,37.4561268812079);
#95=VECTOR('',#401,41.0340866163887);
#96=VECTOR('',#418,39.6221138464891);
#97=VECTOR('',#423,40.5);
#98=VECTOR('',#428,41.2);
#99=VECTOR('',#433,41.9);
#100=VECTOR('',#438,41.2);
#101=VECTOR('',#443,40.5000000000001);
#102=VECTOR('',#448,41.65);
#103=VECTOR('',#455,40.5878329020845);
#104=VECTOR('',#478,32.);
#105=CIRCLE('',#319,37.);
#106=CIRCLE('',#320,37.);
#107=CIRCLE('',#321,37.);
#108=CIRCLE('',#323,37.9122537624158);
#109=CIRCLE('',#324,37.9122537624158);
#110=CIRCLE('',#326,39.7681732327773);
#111=CIRCLE('',#327,0.999999999999999);
#112=CIRCLE('',#328,39.7681732327773);
#113=CIRCLE('',#330,42.3);
#114=CIRCLE('',#332,39.2140740033711);
#115=CIRCLE('',#334,0.5);
#116=CIRCLE('',#335,38.7442276929781);
#117=CIRCLE('',#336,38.7442276929781);
#118=CIRCLE('',#338,40.5);
#119=CIRCLE('',#340,40.5);
#120=CIRCLE('',#342,41.9);
#121=CIRCLE('',#344,41.9);
#122=CIRCLE('',#346,40.5000000000001);
#123=CIRCLE('',#348,40.5000000000001);
#124=CIRCLE('',#350,42.8);
#125=CIRCLE('',#352,41.);
#126=CIRCLE('',#354,40.1756658041691);
#127=CIRCLE('',#355,40.1756658041691);
#128=CIRCLE('',#357,0.900000000000001);
#129=CIRCLE('',#358,38.486649941902);
#130=CIRCLE('',#360,34.5);
#131=CIRCLE('',#361,3.99999999999997);
#132=CIRCLE('',#363,32.);
#133=CIRCLE('',#365,32.);
#134=CIRCLE('',#366,32.);
#135=CIRCLE('',#368,5.);
#136=VERTEX_POINT('',#493);
#137=VERTEX_POINT('',#494);
#138=VERTEX_POINT('',#496);
#139=VERTEX_POINT('',#501);
#140=VERTEX_POINT('',#503);
#141=VERTEX_POINT('',#507);
#142=VERTEX_POINT('',#508);
#143=VERTEX_POINT('',#513);
#144=VERTEX_POINT('',#517);
#145=VERTEX_POINT('',#520);
#146=VERTEX_POINT('',#522);
#147=VERTEX_POINT('',#526);
#148=VERTEX_POINT('',#530);
#149=VERTEX_POINT('',#534);
#150=VERTEX_POINT('',#538);
#151=VERTEX_POINT('',#542);
#152=VERTEX_POINT('',#546);
#153=VERTEX_POINT('',#550);
#154=VERTEX_POINT('',#554);
#155=VERTEX_POINT('',#557);
#156=VERTEX_POINT('',#559);
#157=VERTEX_POINT('',#563);
#158=VERTEX_POINT('',#567);
#159=VERTEX_POINT('',#571);
#160=VERTEX_POINT('',#574);
#161=VERTEX_POINT('',#576);
#162=EDGE_CURVE('',#136,#137,#105,.T.);
#163=EDGE_CURVE('',#137,#138,#81,.T.);
#164=EDGE_CURVE('',#138,#138,#106,.T.);
#165=EDGE_CURVE('',#137,#136,#107,.T.);
#166=EDGE_CURVE('',#138,#139,#82,.T.);
#167=EDGE_CURVE('',#140,#139,#108,.T.);
#168=EDGE_CURVE('',#139,#140,#109,.T.);
#169=EDGE_CURVE('',#141,#142,#110,.T.);
#170=EDGE_CURVE('',#141,#140,#111,.T.);
#171=EDGE_CURVE('',#142,#141,#112,.T.);
#172=EDGE_CURVE('',#143,#143,#113,.T.);
#173=EDGE_CURVE('',#143,#142,#83,.T.);
#174=EDGE_CURVE('',#144,#144,#114,.T.);
#175=EDGE_CURVE('',#144,#145,#115,.T.);
#176=EDGE_CURVE('',#146,#145,#116,.T.);
#177=EDGE_CURVE('',#145,#146,#117,.T.);
#178=EDGE_CURVE('',#147,#147,#118,.T.);
#179=EDGE_CURVE('',#147,#146,#84,.T.);
#180=EDGE_CURVE('',#148,#148,#119,.T.);
#181=EDGE_CURVE('',#148,#147,#85,.T.);
#182=EDGE_CURVE('',#149,#149,#120,.T.);
#183=EDGE_CURVE('',#149,#148,#86,.T.);
#184=EDGE_CURVE('',#150,#150,#121,.T.);
#185=EDGE_CURVE('',#150,#149,#87,.T.);
#186=EDGE_CURVE('',#151,#151,#122,.T.);
#187=EDGE_CURVE('',#151,#150,#88,.T.);
#188=EDGE_CURVE('',#152,#152,#123,.T.);
#189=EDGE_CURVE('',#152,#151,#89,.T.);
#190=EDGE_CURVE('',#153,#153,#124,.T.);
#191=EDGE_CURVE('',#153,#152,#90,.T.);
#192=EDGE_CURVE('',#154,#154,#125,.T.);
#193=EDGE_CURVE('',#154,#155,#91,.T.);
#194=EDGE_CURVE('',#156,#155,#126,.T.);
#195=EDGE_CURVE('',#155,#156,#127,.T.);
#196=EDGE_CURVE('',#156,#157,#128,.T.);
#197=EDGE_CURVE('',#157,#157,#129,.T.);
#198=EDGE_CURVE('',#158,#158,#130,.T.);
#199=EDGE_CURVE('',#158,#157,#131,.T.);
#200=EDGE_CURVE('',#159,#159,#132,.T.);
#201=EDGE_CURVE('',#159,#160,#92,.T.);
#202=EDGE_CURVE('',#161,#160,#133,.T.);
#203=EDGE_CURVE('',#160,#161,#134,.T.);
#204=EDGE_CURVE('',#161,#136,#135,.T.);
#205=ORIENTED_EDGE('',*,*,#162,.T.);
#206=ORIENTED_EDGE('',*,*,#163,.T.);
#207=ORIENTED_EDGE('',*,*,#164,.F.);
#208=ORIENTED_EDGE('',*,*,#163,.F.);
#209=ORIENTED_EDGE('',*,*,#165,.T.);
#210=ORIENTED_EDGE('',*,*,#164,.T.);
#211=ORIENTED_EDGE('',*,*,#166,.T.);
#212=ORIENTED_EDGE('',*,*,#167,.F.);
#213=ORIENTED_EDGE('',*,*,#168,.F.);
#214=ORIENTED_EDGE('',*,*,#166,.F.);
#215=ORIENTED_EDGE('',*,*,#169,.F.);
#216=ORIENTED_EDGE('',*,*,#170,.T.);
#217=ORIENTED_EDGE('',*,*,#167,.T.);
#218=ORIENTED_EDGE('',*,*,#168,.T.);
#219=ORIENTED_EDGE('',*,*,#170,.F.);
#220=ORIENTED_EDGE('',*,*,#171,.F.);
#221=ORIENTED_EDGE('',*,*,#172,.F.);
#222=ORIENTED_EDGE('',*,*,#173,.T.);
#223=ORIENTED_EDGE('',*,*,#171,.T.);
#224=ORIENTED_EDGE('',*,*,#169,.T.);
#225=ORIENTED_EDGE('',*,*,#173,.F.);
#226=ORIENTED_EDGE('',*,*,#172,.T.);
#227=ORIENTED_EDGE('',*,*,#174,.F.);
#228=ORIENTED_EDGE('',*,*,#174,.T.);
#229=ORIENTED_EDGE('',*,*,#175,.T.);
#230=ORIENTED_EDGE('',*,*,#176,.F.);
#231=ORIENTED_EDGE('',*,*,#177,.F.);
#232=ORIENTED_EDGE('',*,*,#175,.F.);
#233=ORIENTED_EDGE('',*,*,#178,.F.);
#234=ORIENTED_EDGE('',*,*,#179,.T.);
#235=ORIENTED_EDGE('',*,*,#176,.T.);
#236=ORIENTED_EDGE('',*,*,#177,.T.);
#237=ORIENTED_EDGE('',*,*,#179,.F.);
#238=ORIENTED_EDGE('',*,*,#180,.F.);
#239=ORIENTED_EDGE('',*,*,#181,.T.);
#240=ORIENTED_EDGE('',*,*,#178,.T.);
#241=ORIENTED_EDGE('',*,*,#181,.F.);
#242=ORIENTED_EDGE('',*,*,#182,.F.);
#243=ORIENTED_EDGE('',*,*,#183,.T.);
#244=ORIENTED_EDGE('',*,*,#180,.T.);
#245=ORIENTED_EDGE('',*,*,#183,.F.);
#246=ORIENTED_EDGE('',*,*,#184,.F.);
#247=ORIENTED_EDGE('',*,*,#185,.T.);
#248=ORIENTED_EDGE('',*,*,#182,.T.);
#249=ORIENTED_EDGE('',*,*,#185,.F.);
#250=ORIENTED_EDGE('',*,*,#186,.F.);
#251=ORIENTED_EDGE('',*,*,#187,.T.);
#252=ORIENTED_EDGE('',*,*,#184,.T.);
#253=ORIENTED_EDGE('',*,*,#187,.F.);
#254=ORIENTED_EDGE('',*,*,#188,.F.);
#255=ORIENTED_EDGE('',*,*,#189,.T.);
#256=ORIENTED_EDGE('',*,*,#186,.T.);
#257=ORIENTED_EDGE('',*,*,#189,.F.);
#258=ORIENTED_EDGE('',*,*,#190,.F.);
#259=ORIENTED_EDGE('',*,*,#191,.T.);
#260=ORIENTED_EDGE('',*,*,#188,.T.);
#261=ORIENTED_EDGE('',*,*,#191,.F.);
#262=ORIENTED_EDGE('',*,*,#190,.T.);
#263=ORIENTED_EDGE('',*,*,#192,.F.);
#264=ORIENTED_EDGE('',*,*,#192,.T.);
#265=ORIENTED_EDGE('',*,*,#193,.T.);
#266=ORIENTED_EDGE('',*,*,#194,.F.);
#267=ORIENTED_EDGE('',*,*,#195,.F.);
#268=ORIENTED_EDGE('',*,*,#193,.F.);
#269=ORIENTED_EDGE('',*,*,#194,.T.);
#270=ORIENTED_EDGE('',*,*,#195,.T.);
#271=ORIENTED_EDGE('',*,*,#196,.T.);
#272=ORIENTED_EDGE('',*,*,#197,.F.);
#273=ORIENTED_EDGE('',*,*,#196,.F.);
#274=ORIENTED_EDGE('',*,*,#198,.F.);
#275=ORIENTED_EDGE('',*,*,#199,.T.);
#276=ORIENTED_EDGE('',*,*,#197,.T.);
#277=ORIENTED_EDGE('',*,*,#199,.F.);
#278=ORIENTED_EDGE('',*,*,#198,.T.);
#279=ORIENTED_EDGE('',*,*,#200,.F.);
#280=ORIENTED_EDGE('',*,*,#200,.T.);
#281=ORIENTED_EDGE('',*,*,#201,.T.);
#282=ORIENTED_EDGE('',*,*,#202,.F.);
#283=ORIENTED_EDGE('',*,*,#203,.F.);
#284=ORIENTED_EDGE('',*,*,#201,.F.);
#285=ORIENTED_EDGE('',*,*,#202,.T.);
#286=ORIENTED_EDGE('',*,*,#203,.T.);
#287=ORIENTED_EDGE('',*,*,#204,.T.);
#288=ORIENTED_EDGE('',*,*,#165,.F.);
#289=ORIENTED_EDGE('',*,*,#162,.F.);
#290=ORIENTED_EDGE('',*,*,#204,.F.);
#291=CYLINDRICAL_SURFACE('',#318,37.);
#292=CYLINDRICAL_SURFACE('',#339,40.5);
#293=CYLINDRICAL_SURFACE('',#343,41.9);
#294=CYLINDRICAL_SURFACE('',#347,40.5000000000001);
#295=CYLINDRICAL_SURFACE('',#364,32.);
#296=ADVANCED_FACE('',(#38),#291,.F.);
#297=ADVANCED_FACE('',(#39),#31,.F.);
#298=ADVANCED_FACE('',(#40),#26,.T.);
#299=ADVANCED_FACE('',(#41),#32,.T.);
#300=ADVANCED_FACE('',(#42,#20),#23,.T.);
#301=ADVANCED_FACE('',(#43),#27,.F.);
#302=ADVANCED_FACE('',(#44),#33,.T.);
#303=ADVANCED_FACE('',(#45),#292,.T.);
#304=ADVANCED_FACE('',(#46),#34,.T.);
#305=ADVANCED_FACE('',(#47),#293,.T.);
#306=ADVANCED_FACE('',(#48),#35,.T.);
#307=ADVANCED_FACE('',(#49),#294,.T.);
#308=ADVANCED_FACE('',(#50),#36,.T.);
#309=ADVANCED_FACE('',(#51,#21),#24,.T.);
#310=ADVANCED_FACE('',(#52),#37,.F.);
#311=ADVANCED_FACE('',(#53),#28,.F.);
#312=ADVANCED_FACE('',(#54),#29,.T.);
#313=ADVANCED_FACE('',(#55,#22),#25,.T.);
#314=ADVANCED_FACE('',(#56),#295,.F.);
#315=ADVANCED_FACE('',(#57),#30,.F.);
#316=CLOSED_SHELL('',(#296,#297,#298,#299,#300,#301,#302,#303,#304,#305,
#306,#307,#308,#309,#310,#311,#312,#313,#314,#315));
#317=AXIS2_PLACEMENT_3D('',#491,#371,#372);
#318=AXIS2_PLACEMENT_3D('',#492,#373,#374);
#319=AXIS2_PLACEMENT_3D('',#495,#375,#376);
#320=AXIS2_PLACEMENT_3D('',#498,#378,#379);
#321=AXIS2_PLACEMENT_3D('',#499,#380,#381);
#322=AXIS2_PLACEMENT_3D('',#500,#382,#383);
#323=AXIS2_PLACEMENT_3D('',#504,#385,#386);
#324=AXIS2_PLACEMENT_3D('',#505,#387,#388);
#325=AXIS2_PLACEMENT_3D('',#506,#389,#390);
#326=AXIS2_PLACEMENT_3D('',#509,#391,#392);
#327=AXIS2_PLACEMENT_3D('',#510,#393,#394);
#328=AXIS2_PLACEMENT_3D('',#511,#395,#396);
#329=AXIS2_PLACEMENT_3D('',#512,#397,#398);
#330=AXIS2_PLACEMENT_3D('',#514,#399,#400);
#331=AXIS2_PLACEMENT_3D('',#516,#402,#403);
#332=AXIS2_PLACEMENT_3D('',#518,#404,#405);
#333=AXIS2_PLACEMENT_3D('',#519,#406,#407);
#334=AXIS2_PLACEMENT_3D('',#521,#408,#409);
#335=AXIS2_PLACEMENT_3D('',#523,#410,#411);
#336=AXIS2_PLACEMENT_3D('',#524,#412,#413);
#337=AXIS2_PLACEMENT_3D('',#525,#414,#415);
#338=AXIS2_PLACEMENT_3D('',#527,#416,#417);
#339=AXIS2_PLACEMENT_3D('',#529,#419,#420);
#340=AXIS2_PLACEMENT_3D('',#531,#421,#422);
#341=AXIS2_PLACEMENT_3D('',#533,#424,#425);
#342=AXIS2_PLACEMENT_3D('',#535,#426,#427);
#343=AXIS2_PLACEMENT_3D('',#537,#429,#430);
#344=AXIS2_PLACEMENT_3D('',#539,#431,#432);
#345=AXIS2_PLACEMENT_3D('',#541,#434,#435);
#346=AXIS2_PLACEMENT_3D('',#543,#436,#437);
#347=AXIS2_PLACEMENT_3D('',#545,#439,#440);
#348=AXIS2_PLACEMENT_3D('',#547,#441,#442);
#349=AXIS2_PLACEMENT_3D('',#549,#444,#445);
#350=AXIS2_PLACEMENT_3D('',#551,#446,#447);
#351=AXIS2_PLACEMENT_3D('',#553,#449,#450);
#352=AXIS2_PLACEMENT_3D('',#555,#451,#452);
#353=AXIS2_PLACEMENT_3D('',#556,#453,#454);
#354=AXIS2_PLACEMENT_3D('',#560,#456,#457);
#355=AXIS2_PLACEMENT_3D('',#561,#458,#459);
#356=AXIS2_PLACEMENT_3D('',#562,#460,#461);
#357=AXIS2_PLACEMENT_3D('',#564,#462,#463);
#358=AXIS2_PLACEMENT_3D('',#565,#464,#465);
#359=AXIS2_PLACEMENT_3D('',#566,#466,#467);
#360=AXIS2_PLACEMENT_3D('',#568,#468,#469);
#361=AXIS2_PLACEMENT_3D('',#569,#470,#471);
#362=AXIS2_PLACEMENT_3D('',#570,#472,#473);
#363=AXIS2_PLACEMENT_3D('',#572,#474,#475);
#364=AXIS2_PLACEMENT_3D('',#573,#476,#477);
#365=AXIS2_PLACEMENT_3D('',#577,#479,#480);
#366=AXIS2_PLACEMENT_3D('',#578,#481,#482);
#367=AXIS2_PLACEMENT_3D('',#579,#483,#484);
#368=AXIS2_PLACEMENT_3D('',#580,#485,#486);
#369=AXIS2_PLACEMENT_3D('',#581,#487,#488);
#370=AXIS2_PLACEMENT_3D('',#582,#489,#490);
#371=DIRECTION('axis',(0.,0.,1.));
#372=DIRECTION('refdir',(1.,0.,0.));
#373=DIRECTION('center_axis',(0.,-1.,0.));
#374=DIRECTION('ref_axis',(-1.,0.,0.));
#375=DIRECTION('center_axis',(0.,-1.,0.));
#376=DIRECTION('ref_axis',(1.,0.,0.));
#377=DIRECTION('',(0.,1.,0.));
#378=DIRECTION('center_axis',(0.,-1.,0.));
#379=DIRECTION('ref_axis',(1.,0.,0.));
#380=DIRECTION('center_axis',(0.,-1.,0.));
#381=DIRECTION('ref_axis',(1.,0.,0.));
#382=DIRECTION('center_axis',(0.,1.,0.));
#383=DIRECTION('ref_axis',(-1.,0.,0.));
#384=DIRECTION('',(0.173648177666926,0.984807753012209,2.12657684957572E-17));
#385=DIRECTION('center_axis',(0.,-1.,0.));
#386=DIRECTION('ref_axis',(1.,0.,0.));
#387=DIRECTION('center_axis',(0.,-1.,0.));
#388=DIRECTION('ref_axis',(1.,0.,0.));
#389=DIRECTION('center_axis',(0.,-1.,0.));
#390=DIRECTION('ref_axis',(0.,0.,-1.));
#391=DIRECTION('center_axis',(0.,-1.,0.));
#392=DIRECTION('ref_axis',(1.,0.,0.));
#393=DIRECTION('center_axis',(-1.,0.,0.));
#394=DIRECTION('ref_axis',(0.,0.,1.));
#395=DIRECTION('center_axis',(0.,-1.,0.));
#396=DIRECTION('ref_axis',(1.,0.,0.));
#397=DIRECTION('center_axis',(0.,-1.,0.));
#398=DIRECTION('ref_axis',(-1.,0.,0.));
#399=DIRECTION('center_axis',(0.,-1.,0.));
#400=DIRECTION('ref_axis',(1.,0.,0.));
#401=DIRECTION('',(-0.49108489683234,0.871111717349256,-6.01405547015334E-17));
#402=DIRECTION('center_axis',(0.,-1.,0.));
#403=DIRECTION('ref_axis',(0.,0.,-1.));
#404=DIRECTION('center_axis',(0.,-1.,0.));
#405=DIRECTION('ref_axis',(1.,0.,0.));
#406=DIRECTION('center_axis',(0.,-1.,0.));
#407=DIRECTION('ref_axis',(0.,0.,-1.));
#408=DIRECTION('center_axis',(-1.,0.,0.));
#409=DIRECTION('ref_axis',(0.,0.,1.));
#410=DIRECTION('center_axis',(0.,-1.,0.));
#411=DIRECTION('ref_axis',(1.,0.,0.));
#412=DIRECTION('center_axis',(0.,-1.,0.));
#413=DIRECTION('ref_axis',(1.,0.,0.));
#414=DIRECTION('center_axis',(0.,-1.,0.));
#415=DIRECTION('ref_axis',(-1.,0.,0.));
#416=DIRECTION('center_axis',(0.,-1.,0.));
#417=DIRECTION('ref_axis',(1.,0.,0.));
#418=DIRECTION('',(-0.342020143325665,0.93969262078591,-4.18853873767695E-17));
#419=DIRECTION('center_axis',(0.,-1.,0.));
#420=DIRECTION('ref_axis',(-1.,0.,0.));
#421=DIRECTION('center_axis',(0.,-1.,0.));
#422=DIRECTION('ref_axis',(1.,0.,0.));
#423=DIRECTION('',(0.,1.,0.));
#424=DIRECTION('center_axis',(0.,-1.,0.));
#425=DIRECTION('ref_axis',(-1.,0.,0.));
#426=DIRECTION('center_axis',(0.,-1.,0.));
#427=DIRECTION('ref_axis',(1.,0.,0.));
#428=DIRECTION('',(-0.707106781186548,0.707106781186547,-8.65956056235493E-17));
#429=DIRECTION('center_axis',(0.,-1.,0.));
#430=DIRECTION('ref_axis',(-1.,0.,0.));
#431=DIRECTION('center_axis',(0.,-1.,0.));
#432=DIRECTION('ref_axis',(1.,0.,0.));
#433=DIRECTION('',(0.,1.,0.));
#434=DIRECTION('center_axis',(0.,1.,0.));
#435=DIRECTION('ref_axis',(-1.,0.,0.));
#436=DIRECTION('center_axis',(0.,-1.,0.));
#437=DIRECTION('ref_axis',(1.,0.,0.));
#438=DIRECTION('',(0.707106781186548,0.707106781186547,8.65956056235493E-17));
#439=DIRECTION('center_axis',(0.,-1.,0.));
#440=DIRECTION('ref_axis',(-1.,0.,0.));
#441=DIRECTION('center_axis',(0.,-1.,0.));
#442=DIRECTION('ref_axis',(1.,0.,0.));
#443=DIRECTION('',(0.,1.,0.));
#444=DIRECTION('center_axis',(0.,-1.,0.));
#445=DIRECTION('ref_axis',(-1.,0.,0.));
#446=DIRECTION('center_axis',(0.,-1.,0.));
#447=DIRECTION('ref_axis',(1.,0.,0.));
#448=DIRECTION('',(-0.498471124258075,0.866906303057539,-6.10451066790034E-17));
#449=DIRECTION('center_axis',(0.,-1.,0.));
#450=DIRECTION('ref_axis',(0.,0.,-1.));
#451=DIRECTION('center_axis',(0.,-1.,0.));
#452=DIRECTION('ref_axis',(1.,0.,0.));
#453=DIRECTION('center_axis',(0.,-1.,0.));
#454=DIRECTION('ref_axis',(-1.,0.,0.));
#455=DIRECTION('',(-0.474933280665284,0.880021805932393,-5.81625521975292E-17));
#456=DIRECTION('center_axis',(0.,-1.,0.));
#457=DIRECTION('ref_axis',(1.,0.,0.));
#458=DIRECTION('center_axis',(0.,-1.,0.));
#459=DIRECTION('ref_axis',(1.,0.,0.));
#460=DIRECTION('center_axis',(0.,-1.,0.));
#461=DIRECTION('ref_axis',(0.,0.,-1.));
#462=DIRECTION('center_axis',(-1.,0.,0.));
#463=DIRECTION('ref_axis',(0.,0.,1.));
#464=DIRECTION('center_axis',(0.,-1.,0.));
#465=DIRECTION('ref_axis',(1.,0.,0.));
#466=DIRECTION('center_axis',(0.,-1.,0.));
#467=DIRECTION('ref_axis',(0.,0.,-1.));
#468=DIRECTION('center_axis',(0.,-1.,0.));
#469=DIRECTION('ref_axis',(1.,0.,0.));
#470=DIRECTION('center_axis',(-1.,0.,0.));
#471=DIRECTION('ref_axis',(0.,0.,1.));
#472=DIRECTION('center_axis',(0.,-1.,0.));
#473=DIRECTION('ref_axis',(0.,0.,-1.));
#474=DIRECTION('center_axis',(0.,-1.,0.));
#475=DIRECTION('ref_axis',(1.,0.,0.));
#476=DIRECTION('center_axis',(0.,-1.,0.));
#477=DIRECTION('ref_axis',(-1.,0.,0.));
#478=DIRECTION('',(0.,1.,0.));
#479=DIRECTION('center_axis',(0.,-1.,0.));
#480=DIRECTION('ref_axis',(1.,0.,0.));
#481=DIRECTION('center_axis',(0.,-1.,0.));
#482=DIRECTION('ref_axis',(1.,0.,0.));
#483=DIRECTION('center_axis',(0.,-1.,0.));
#484=DIRECTION('ref_axis',(0.,0.,-1.));
#485=DIRECTION('center_axis',(-1.,0.,0.));
#486=DIRECTION('ref_axis',(0.,0.,1.));
#487=DIRECTION('axis',(0.,0.,1.));
#488=DIRECTION('refdir',(1.,0.,0.));
#489=DIRECTION('',(0.,0.,1.));
#490=DIRECTION('',(1.,0.,0.));
#491=CARTESIAN_POINT('',(0.,0.,0.));
#492=CARTESIAN_POINT('Origin',(126.07112620335,43.9350660187947,0.));
#493=CARTESIAN_POINT('',(126.07112620335,38.9350660187947,37.));
#494=CARTESIAN_POINT('',(163.07112620335,38.9350660187947,4.53119315684521E-15));
#495=CARTESIAN_POINT('Origin',(126.07112620335,38.9350660187947,0.));
#496=CARTESIAN_POINT('',(163.07112620335,48.9350660187947,4.53119315684521E-15));
#497=CARTESIAN_POINT('',(163.07112620335,43.9350660187947,4.53119315684521E-15));
#498=CARTESIAN_POINT('Origin',(126.07112620335,48.9350660187947,0.));
#499=CARTESIAN_POINT('Origin',(126.07112620335,38.9350660187947,0.));
#500=CARTESIAN_POINT('Origin',(126.07112620335,51.5218901076282,0.));
#501=CARTESIAN_POINT('',(163.983379965766,54.1087141964616,4.64291202186048E-15));
#502=CARTESIAN_POINT('',(163.527253084558,51.5218901076282,4.58705258935284E-15));
#503=CARTESIAN_POINT('',(126.07112620335,54.1087141964616,37.9122537624158));
#504=CARTESIAN_POINT('Origin',(126.07112620335,54.1087141964616,0.));
#505=CARTESIAN_POINT('Origin',(126.07112620335,54.1087141964616,0.));
#506=CARTESIAN_POINT('Origin',(126.07112620335,53.9350660187947,0.));
#507=CARTESIAN_POINT('',(126.07112620335,54.426150915627,39.7681732327773));
#508=CARTESIAN_POINT('',(165.839299436127,54.426150915627,4.87019660574582E-15));
#509=CARTESIAN_POINT('Origin',(126.07112620335,54.426150915627,0.));
#510=CARTESIAN_POINT('Origin',(126.07112620335,53.9350660187947,38.897061515428));
#511=CARTESIAN_POINT('Origin',(126.07112620335,54.426150915627,0.));
#512=CARTESIAN_POINT('Origin',(126.07112620335,52.1806084672109,0.));
#513=CARTESIAN_POINT('',(168.37112620335,49.9350660187947,5.18025596039331E-15));
#514=CARTESIAN_POINT('Origin',(126.07112620335,49.9350660187947,0.));
#515=CARTESIAN_POINT('',(167.105212819739,52.1806084672109,5.02522628306956E-15));
#516=CARTESIAN_POINT('Origin',(86.8570521999791,49.9350660187947,0.));
#517=CARTESIAN_POINT('',(126.07112620335,49.9350660187947,39.2140740033711));
#518=CARTESIAN_POINT('Origin',(126.07112620335,49.9350660187947,0.));
#519=CARTESIAN_POINT('Origin',(126.07112620335,49.4350660187947,0.));
#520=CARTESIAN_POINT('',(126.07112620335,49.2640559471319,38.7442276929781));
#521=CARTESIAN_POINT('Origin',(126.07112620335,49.4350660187947,39.2140740033711));
#522=CARTESIAN_POINT('',(164.815353896328,49.2640559471319,4.74479944296419E-15));
#523=CARTESIAN_POINT('Origin',(126.07112620335,49.2640559471319,0.));
#524=CARTESIAN_POINT('Origin',(126.07112620335,49.2640559471319,0.));
#525=CARTESIAN_POINT('Origin',(126.07112620335,46.8520835635087,0.));
#526=CARTESIAN_POINT('',(166.57112620335,44.4401111798855,4.95981953654678E-15));
#527=CARTESIAN_POINT('Origin',(126.07112620335,44.4401111798855,0.));
#528=CARTESIAN_POINT('',(165.693240049839,46.8520835635087,4.85230948975549E-15));
#529=CARTESIAN_POINT('Origin',(126.07112620335,43.8875885993401,0.));
#530=CARTESIAN_POINT('',(166.57112620335,43.3350660187947,4.95981953654678E-15));
#531=CARTESIAN_POINT('Origin',(126.07112620335,43.3350660187947,0.));
#532=CARTESIAN_POINT('',(166.57112620335,43.8875885993401,4.95981953654678E-15));
#533=CARTESIAN_POINT('Origin',(126.07112620335,42.6350660187947,0.));
#534=CARTESIAN_POINT('',(167.97112620335,41.9350660187947,5.13127008842741E-15));
#535=CARTESIAN_POINT('Origin',(126.07112620335,41.9350660187947,0.));
#536=CARTESIAN_POINT('',(167.27112620335,42.6350660187947,5.0455448124871E-15));
#537=CARTESIAN_POINT('Origin',(126.07112620335,41.4350660187947,0.));
#538=CARTESIAN_POINT('',(167.97112620335,40.9350660187947,5.13127008842741E-15));
#539=CARTESIAN_POINT('Origin',(126.07112620335,40.9350660187947,0.));
#540=CARTESIAN_POINT('',(167.97112620335,41.4350660187947,5.13127008842741E-15));
#541=CARTESIAN_POINT('Origin',(126.07112620335,40.2350660187947,0.));
#542=CARTESIAN_POINT('',(166.57112620335,39.5350660187947,4.95981953654679E-15));
#543=CARTESIAN_POINT('Origin',(126.07112620335,39.5350660187947,0.));
#544=CARTESIAN_POINT('',(167.27112620335,40.2350660187947,5.0455448124871E-15));
#545=CARTESIAN_POINT('Origin',(126.07112620335,39.2350660187947,0.));
#546=CARTESIAN_POINT('',(166.57112620335,38.9350660187947,4.95981953654679E-15));
#547=CARTESIAN_POINT('Origin',(126.07112620335,38.9350660187947,0.));
#548=CARTESIAN_POINT('',(166.57112620335,39.2350660187947,4.95981953654679E-15));
#549=CARTESIAN_POINT('Origin',(126.07112620335,36.9350660187947,0.));
#550=CARTESIAN_POINT('',(168.87112620335,34.9350660187947,5.24148830035067E-15));
#551=CARTESIAN_POINT('Origin',(126.07112620335,34.9350660187947,0.));
#552=CARTESIAN_POINT('',(167.72112620335,36.9350660187947,5.10065391844873E-15));
#553=CARTESIAN_POINT('Origin',(85.0711262033501,34.9350660187947,0.));
#554=CARTESIAN_POINT('',(167.07112620335,34.9350660187947,5.02105187650415E-15));
#555=CARTESIAN_POINT('Origin',(126.07112620335,34.9350660187947,0.));
#556=CARTESIAN_POINT('Origin',(126.07112620335,35.6987859950941,0.));
#557=CARTESIAN_POINT('',(166.246792007519,36.4625059713935,4.92010005306894E-15));
#558=CARTESIAN_POINT('',(166.658959105435,35.6987859950941,4.97057596478654E-15));
#559=CARTESIAN_POINT('',(126.07112620335,36.4625059713935,40.1756658041691));
#560=CARTESIAN_POINT('Origin',(126.07112620335,36.4625059713935,0.));
#561=CARTESIAN_POINT('Origin',(126.07112620335,36.4625059713935,0.));
#562=CARTESIAN_POINT('Origin',(126.07112620335,36.0350660187947,0.));
#563=CARTESIAN_POINT('',(126.07112620335,36.1085354065498,38.486649941902));
#564=CARTESIAN_POINT('Origin',(126.07112620335,36.0350660187947,39.3836461788299));
#565=CARTESIAN_POINT('Origin',(126.07112620335,36.1085354065498,0.));
#566=CARTESIAN_POINT('Origin',(126.07112620335,36.4350660187947,0.));
#567=CARTESIAN_POINT('',(126.07112620335,32.4350660187947,34.5));
#568=CARTESIAN_POINT('Origin',(126.07112620335,32.4350660187947,0.));
#569=CARTESIAN_POINT('Origin',(126.07112620335,36.4350660187947,34.5));
#570=CARTESIAN_POINT('Origin',(94.0711262033501,32.4350660187947,0.));
#571=CARTESIAN_POINT('',(158.07112620335,32.4350660187947,3.91886975727153E-15));
#572=CARTESIAN_POINT('Origin',(126.07112620335,32.4350660187947,0.));
#573=CARTESIAN_POINT('Origin',(126.07112620335,33.1850660187947,0.));
#574=CARTESIAN_POINT('',(158.07112620335,33.9350660187947,3.91886975727153E-15));
#575=CARTESIAN_POINT('',(158.07112620335,33.1850660187947,3.91886975727153E-15));
#576=CARTESIAN_POINT('',(126.07112620335,33.9350660187947,32.));
#577=CARTESIAN_POINT('Origin',(126.07112620335,33.9350660187947,0.));
#578=CARTESIAN_POINT('Origin',(126.07112620335,33.9350660187947,0.));
#579=CARTESIAN_POINT('Origin',(126.07112620335,38.9350660187947,0.));
#580=CARTESIAN_POINT('Origin',(126.07112620335,38.9350660187947,32.));
#581=CARTESIAN_POINT('',(0.,0.,0.));
#582=CARTESIAN_POINT('',(0.,0.,0.));
#583=UNCERTAINTY_MEASURE_WITH_UNIT(LENGTH_MEASURE(0.001),#589,
'DISTANCE_ACCURACY_VALUE',
'Maximum model space distance between geometric entities at asserted c
onnectivities');
#584=UNCERTAINTY_MEASURE_WITH_UNIT(LENGTH_MEASURE(0.001),#589,
'DISTANCE_ACCURACY_VALUE',
'Maximum model space distance between geometric entities at asserted c
onnectivities');
#585=UNCERTAINTY_MEASURE_WITH_UNIT(LENGTH_MEASURE(0.001),#589,
'DISTANCE_ACCURACY_VALUE',
'Maximum model space distance between geometric entities at asserted c
onnectivities');
#586=(
GEOMETRIC_REPRESENTATION_CONTEXT(3)
GLOBAL_UNCERTAINTY_ASSIGNED_CONTEXT((#583))
GLOBAL_UNIT_ASSIGNED_CONTEXT((#589,#590,#591))
REPRESENTATION_CONTEXT('','3D')
);
#587=(
GEOMETRIC_REPRESENTATION_CONTEXT(3)
GLOBAL_UNCERTAINTY_ASSIGNED_CONTEXT((#584))
GLOBAL_UNIT_ASSIGNED_CONTEXT((#589,#590,#591))
REPRESENTATION_CONTEXT('','3D')
);
#588=(
GEOMETRIC_REPRESENTATION_CONTEXT(3)
GLOBAL_UNCERTAINTY_ASSIGNED_CONTEXT((#585))
GLOBAL_UNIT_ASSIGNED_CONTEXT((#589,#590,#591))
REPRESENTATION_CONTEXT('','3D')
);
#589=(
LENGTH_UNIT()
NAMED_UNIT(*)
SI_UNIT(.CENTI.,.METRE.)
);
#590=(
NAMED_UNIT(*)
PLANE_ANGLE_UNIT()
SI_UNIT($,.RADIAN.)
);
#591=(
NAMED_UNIT(*)
SI_UNIT($,.STERADIAN.)
SOLID_ANGLE_UNIT()
);
#592=SHAPE_DEFINITION_REPRESENTATION(#594,#597);
#593=SHAPE_DEFINITION_REPRESENTATION(#595,#598);
#594=PRODUCT_DEFINITION_SHAPE('',$,#600);
#595=PRODUCT_DEFINITION_SHAPE('',$,#601);
#596=PRODUCT_DEFINITION_SHAPE($,$,#15);
#597=SHAPE_REPRESENTATION('',(#317,#370),#586);
#598=SHAPE_REPRESENTATION('',(#369),#587);
#599=PRODUCT_DEFINITION_CONTEXT('part definition',#607,'design');
#600=PRODUCT_DEFINITION('Product','Product',#602,#599);
#601=PRODUCT_DEFINITION('*S0','*S0',#603,#599);
#602=PRODUCT_DEFINITION_FORMATION('',$,#609);
#603=PRODUCT_DEFINITION_FORMATION('',$,#610);
#604=PRODUCT_RELATED_PRODUCT_CATEGORY('Product','Product',(#609));
#605=PRODUCT_RELATED_PRODUCT_CATEGORY('*S0','*S0',(#610));
#606=APPLICATION_PROTOCOL_DEFINITION('international standard',
'automotive_design',2009,#607);
#607=APPLICATION_CONTEXT(
'Core Data for Automotive Mechanical Design Process');
#608=PRODUCT_CONTEXT('part definition',#607,'mechanical');
#609=PRODUCT('Product','Product',$,(#608));
#610=PRODUCT('*S0','*S0',$,(#608));
#611=PRESENTATION_STYLE_ASSIGNMENT((#612));
#612=SURFACE_STYLE_USAGE(.BOTH.,#613);
#613=SURFACE_SIDE_STYLE('',(#614));
#614=SURFACE_STYLE_FILL_AREA(#615);
#615=FILL_AREA_STYLE('',(#616));
#616=FILL_AREA_STYLE_COLOUR('',#617);
#617=COLOUR_RGB('',0.329411764705882,0.329411764705882,0.329411764705882);
ENDSEC;
END-ISO-10303-21;
